» » »

Darkness Descends Bass tabs (ver.1)

Artists:  A B C D E F G H I J K L M N O P Q R S T U V W X Y Z # 

Darkness Descends Bass tabs (ver.1)

Dark Angel
Rating:
5/5 (1 vote)

Hard to play? Try these video lessons and learn fast.
                -----------------------------------------------------------------------------
                       Dark Angel - Darkness Descends
-----------------------------------------------------------------------------

Album:Darkness Descends

Tuning: E A D G

Riff 1: (Intro)

G|-------------------------------------------------|
D|-------------------------------------------------|
A|---6---------------------------------------------|
E|---------5-----2-----4------1-----(1)------------|


Riff 2:

G|--------------------------------------|
D|--------------------------------------|
A|--------------------------------------|
E|--------------------------------000-1-|


Riff 3:

G|---------------------------|
D|---------------------------|
A|---------------------------|
E|-0000-0000-0000-0000001----|


Riff 4:

G|-----------------------------|
D|-----------------------------|
A|-----------------------------|
E|-0000-0000-0000-000000000----|


Riff 5:

G|---------------------------------------------------------------------------|
D|---------------------------------------------------------------------------|
A|-----3h4p3h4p3h4-2h3p2h3p2h3-0h1p0h1p0h1-----3h4p3h4p3h4-2h3p2h3p2h3-------|
E|-000-------------------------------------000-------------------------000-1-|


Riff 6:

G|--------------|
D|--------------|
A|--------------|
E|-00000000-2-4-|


Riff 7:

G|---------------------------------------|
D|---------------------------------------|
A|---------------------------------------|
E|--3-000-1-000000000-2-000-1-000000000--|


Riff 8:

G|------------------|
D|------------------|
A|------------------|
E|-1111111111111111-|


Riff 9:

G|-------------|
D|-------------|
A|-----------2-|
E|-00000-1p0---|


Riff 10:

G|-------------|
D|-------------|
A|-------------|
E|-00000-1p0-1-|


Riff 11:

G|------------|
D|------------|
A|------0h1/3-|
E|-0000-------|

Riff 12:

G|------------|
D|------------|
A|------2h3/5-|
E|-2222-------|


Order:

Riff 1
Riff 2 x2
Riff 3 x3
Riff 4 
Riff 3 x2
Riff 4 x2
Riff 5 x2
Riff 6 x4
Riff 7 x4
Riff 8 x2
Riff 9 x3
Riff 10 
Riff 9 x3
Riff 10
Riff 7 x4
Riff 8 x2
Riff 9 x3
Riff 10
Riff 9 x3
Riff 10
Riff 11 x4
Riff 12 x4
Riff 11 x4
Riff 12 x4
Riff 6 x4
Riff 7 x4
Riff 8 x2
Riff 7 x4
Riff 8 x2
Riff 9 x3
Riff 10
Riff 9 x3
Riff 10
Riff 9 x3
Riff 10
Riff 6 x4 

KEY:

3h4 = Hammer-on
4p3 = Pull-off
1/3 = Slide Up
(1) = Ghost Note
            
Hard to play? Try these video lessons and learn fast. | Correct




comments powered by Disqus
↑ Back to top | Tablatures and chords are parodies/interpretations of the original songs. You may use it for private study, scholarship, research or language learning purposes only