>
 >
Black Prophecies

Black Prophecies Guitar Tabs

Dark Angel - Black Prophecies chords, tabs, tablatures, lyrics

Guitar lessons | Add/correct | Request | Top 50 tabs Artists:  A B C D E F G H I J K L M N O P Q R S T U V W X Y Z 0-9

Black Prophecies Guitar Tabs – Dark Angel

CD, Sheet music, Poster

Do you like Black Prophecies? Share with your friends now
Tabs
DARK ANGEL - BLACK PROPHECIES
(Darkness Descends, 1986)

Key
= after note = vibrato
^ after note = heavy vibrato 
\ = slide down
/ = slide up
+ = tap
h = hammer
p = pull
n = natural harmonic
s = pinching harmonic (squeal)
* = tremolo pick
t = trill
b = bend
|-3-| = triplet

n number above the tab = play the first part then the first finishing part
			 play the first part a second time and then play the second finishing part
			 etc.

Tune Down 1/4 Step

Riff 1

E -----------------------------------------------------
B -----------------------------------------------------
G -7-------------------------7------------8------------
D -7------------6------------7------------8------------
A -5------------6------------5------------6------------
E --------------4--------------------------------------

Riff 1A

E -------------------------------------------------------------------------------------------------
B -------------------------------------------------------------------------------------------------
G -1-1-1-1-1-1-2-1-1-2-1-1-1-1-1-1-1-1-2-1-1-3-2-1-1-1-1-1-1-1-2-1-1-2-1-1-1-1-1-1-1-1-2-1-1-3-2-1-
D -------------------------------------------------------------------------------------------------
A -------------------------------------------------------------------------------------------------
E -------------------------------------------------------------------------------------------------

Riff 1B

E -----------------------------------------------------------
B -----------------------------------------------------------
G -7-------------------------7------------8------------------
D -7------------6------------7------------8------6-5-4-5-4-3-
A -5------------6------------5------------6------6-5-4-5-4-3-
E --------------4--------------------------------4-3-2-3-2-1-

Riff 1C

E -------------------------------------------------------------------------------------------------
B -------------------------------------------------------------------------------------------------
G -1-1-1-1-1-1-2-1-1-2-1-1-1-1-1-1-1-1-2-1-1-3-2-1-1-1-1-1-1-1-2-1-1-2-1-1-1-1-1-1-1-1-------------
D -------------------------------------------------------------------------------------6-5-4-5-4-3-
A -------------------------------------------------------------------------------------6-5-4-5-4-3-
E -------------------------------------------------------------------------------------4-3-2-3-2-1-

Riff 2

E -------------------------------------------------------
B -------------------------------------------------------
G -------------------------------------------------------
D ------------------------3-3----------------------5-4-6-
A ------------------------3-3----------------------5-4-6-
E -0-00-0-0-00-0-0-00-0-0-1-1-0-00-0-0-00-0-0-00-0-3-2-4-

Riff 2A

E ------------------------------------------------------
B ------------------------------------------------------
G ------------------------------------------------------
D ------------------------3-3---------------5-4-6-6-5-8-
A ------------------------3-3---------------5-4-6-6-5-8-
E -0-00-0-0-00-0-0-00-0-0-1-1-0-00-0-0-00-0-3-2-4-4-3-6-

Riff 2B

E ------------------------------------------------------------
B ------------------------------------------------------------
G ------------------------------------------------------------
D ------------------------3-3------------------------------3--
A ------------------------3-3------------------------------3--
E -0-00-0-0-00-0-0-00-0-0-1-1-0-00-0-0-00-0-4--3--2--3--0--1--

Riff 2C

E ------------------------------------------------------------------------------------
B ------------------------------------------------------------------------------------
G ------------------------------------------------------------------------------------
D ------------------------3-3---------------6--5--4--5--4--3--------------------------
A ------------------------3-3---------------6--5--4--5--4--3--------------------------
E -0-00-0-0-00-0-0-00-0-0-1-1-0-00-0-0-00-0-4--3--2--3--2--1--0-0-0-0-0-0-0-0-0-0-0-0-

Riff 3

E -----------------------------------------------------------------------------------------
B -----------------------------------------------------------------------------------------
G -----------------------------------------------------------------------------------------
D -------------------------------------------------------------------------3---5---6---3---
A -------------------------------------------------------------------------1---3---4---1---
E -0-0-0-0-0-0-4-0-0-3-0-0-1-0-0-0-0-0-4-0-0-3-0-0-1-0-0-0-0-0-4-0-0-3-0-0-1---3---4---1---

Riff 3A

E -----------------------------------------------------------------------------------------------------------------
B -----------------------------------------------------------------------------------------------------------------
G -----------------------------------------------------------------------------------------------------------------
D -------------------------------------------------------------------------3---5---6---3---------------------------
A -------------------------------------------------------------------------1---3---4---1---------------------------
E -0-0-0-0-0-0-4-0-0-3-0-0-1-0-0-0-0-0-4-0-0-3-0-0-1-0-0-0-0-0-4-0-0-3-0-0-1---3---4---1---0-0-0-0-0-0-0-0-0-0-0-0-

Riff 4

E -----------------------------------------------------------------------------------------
B -----------------------------------------------------------------------------------------
G -----------------------------------------------------------------------------------------
D -4---------------------3---------------------4---------------------3---------------------
A -4---------------------3---------------------4---------------------3---------------------
E -2---0-0-0-0-0-0-2-1-0-1---0-0-0-0-0-0-0-0-1-2---0-0-0-0-0-0-2-1-0-1---0-0-0-0-0-0-0-0-1-

Riff 4A

E -----------------------------------------------------------------------------------------
B -----------------------------------------------------------------------------------------
G -----------------------------------------------------------------------------------------
D -4---------------------3---------------------4---------------------3---------------------
A -4---------------4-3-2-3---------------1-2-3-4---------------4-3-2-3---------------1-2-3-
E -----0-0-0-0-0-0-----------0-0-0-0-0-0-----------0-0-0-0-0-0-----------0-0-0-0-0-0-------

Riff 4B

E -----------------------------------------------------------------------------------------
B -----------------------------------------------------------------------------------------
G -----------------------------------------------------------------------------------------
D -----------------------------------------------------------------------------------------
A -7---------------7-6-5-6---------------4-5-6-7---------------7-6-5-6---------------1-2-3-
E -----4-4-4-4-4-4-----------4-4-4-4-4-4-----------4-4-4-4-4-4-----------4-4-4-4-4-4-------

E ---------------------------------------------------------------
B ---------------------------------------------------------------
G ---------------------------------------------------------------
D -4---------------------3---------------------------------------
A -4---------------4-3-2-3---------------1-2-3-------------------
E -----0-0-0-0-0-0-----------0-0-0-0-0-0-------4--3--2--3--2--0--

Riff 5

E ---------------------------------------------------------------------------------------
B ---------------------------------------------------------------------------------------
G ---------------------------------------------------------3--4-3---------------3--4-3---
D -------------------1---------------------1---------------3--4-3---------------3--4-3---
A -------------------1---------------------1---------------1--2-1---------------1--2-1---
E -0-0-0-0-0-0-3-2-0-----0-0-0-0-0-0-3-2-0-----0-0-0-0-0-0----------0-0-0-0-0-0----------

E -------------------------------------------------------------------------------------
B -------------------------------------------------------------------------------------
G -------------------------------------------------------------------------------------
D -------------4--5-4---------------4--5-4---------------4--5-4---------------4--5-4---
A -------------4--5-4---------------4--5-4---------------4--5-4---------------4--5-4---
E -0-0-0-0-0-0-2--3-2---0-0-0-0-0-0-2--3-2---0-0-0-0-0-0-2--3-2---0-0-0-0-0-0-2--3-2---

E ------------------------------------------------------------------------------------
B ------------------------------------------------------------------------------------
G -------------3--4-3---------------3--4-3---------------3--4-3---------------4---4---
D -------------3--4-3---------------3--4-3---------------3--4-3---------------4---4---
A -------------1--2-1---------------1--2-1---------------1--2-1---------------2---2---
E -0-0-0-0-0-0----------0-0-0-0-0-0----------0-0-0-0-0-0----------0-0-0-0-0-0---------

E ------------------------------------------------------------------------------------
B ------------------------------------------------------------------------------------
G -------------3--4-3---------------3--4-3---------------3--4-3---------------4---4---
D -------------3--4-3---------------3--4-3---------------3--4-3---------------4---4---
A -------------1--2-1---------------1--2-1---------------1--2-1---------------2---2---
E -0-0-0-0-0-0----------0-0-0-0-0-0----------0-0-0-0-0-0----------0-0-0-0-0-0---------

Riff 6A

E ---------------------------------------------------------------------------------------------
B ---------------------------------------------------------------------------------------------
G -----------------------------------------------------------------------------------------3---
D -------------------------------------------------------------------------------------3---3---
A -------------------------------------------------------------------------------------3---1---
E -0-0-0-0-0-0-0-1-2-4-3-0-4-3-0-0-0-0-0-1-2-3-2-0-3-2-0-0-0-0-0-1-2-4-3-0-4-3-0-0-0-0-1-------
  
  1
E ----------------------------------------------------------------------------------------------
B ----------------------------------------------------------------------------------------------
G ----------------------------------------------------------------------------------------3--5--
D -------------------------------------------------------------------------------------3--3--5--
A -------------------------------------------------------------------------------------3--1--3--
E -0-0-0-0-0-0-0-1-2-4-3-0-4-3-0-0-0-0-0-1-2-3-2-0-3-2-0-0-0-0-0-1-2-4-3-0-4-3-0-0-0-0-1--------

  2
E ----------------------------------------------------------------------------------------------------------------
B ----------------------------------------------------------------------------------------------------------------
G ----------------------------------------------------------------------------------------3--5--------------------
D -------------------------------------------------------------------------------------3--3--5--------------------
A -------------------------------------------------------------------------------------3--1--3--------------------
E -0-0-0-0-0-0-0-1-2-4-3-0-4-3-0-0-0-0-0-1-2-3-2-0-3-2-0-0-0-0-0-1-2-4-3-0-4-3-0-0-0-0-1--------4--3--2--3--2--0--

Riff 6

E ---------------------------------------------------------------------------------------------
B ---------------------------------------------------------------------------------------------
G -----------------------------------------------------------------------------------------3---
D -------------------------------------------------------------------------------------3---3---
A -------------------------------------------------------------------------------------3---1---
E -0-0-0-0-0-0-0-1-2-4-3-0-4-3-0-0-0-0-0-1-2-3-2-0-3-2-0-0-0-0-0-1-2-4-3-0-4-3-0-0-0-0-1-------
  
E ----------------------------------------------------------------------------------------------
B ----------------------------------------------------------------------------------------------
G ----------------------------------------------------------------------------------------3--5--
D -------------------------------------------------------------------------------------3--3--5--
A -------------------------------------------------------------------------------------3--1--3--
E -0-0-0-0-0-0-0-1-2-4-3-0-4-3-0-0-0-0-0-1-2-3-2-0-3-2-0-0-0-0-0-1-2-4-3-0-4-3-0-0-0-0-1--------

Riff 7

E -------------------------------------------------------------------------------------------
B -------------------------------------------------------------------------------------------
G -------------------------------------------------------------------------------------------
D -------------------------------------------------------------------------------------------
A -------------4---------------------4---------------------4---------------------------------
E -0-2-3-0-2-3-4---0-0-0-0-2-3-0-2-3-4---0-0-0-0-2-3-0-2-3-4---0-0-0-0-0-0-0-0-0-0-0-0-0-0-0-

Riff 7A

E -------------------------------------------------------------------------------------------
B -------------------------------------------------------------------------------------------
G -------------------------------------------------------------------------------------------
D -------------4---------------------4---------------------4---------------------------------
A -------------4---------------------4---------------------4---------------------------------
E -0-2-3-0-2-3-2---0-0-0-0-2-3-0-2-3-2---0-0-0-0-2-3-0-2-3-2---3-3-3-3-3-3-3-3-3-3-3-3-3-3-3-

Riff 7B

E -----------------------------------------------------------------------------------------------------
B -----------------------------------------------------------------------------------------------------
G -----------------------------------------------------------------------------------------------------
D -------------5---------------------5---------------------5-------------------------------------------
A -------------5---------------------5---------------------5---------------------------------------4---
E -0-3-4-0-3-4-3---0-0-0-0-3-4-0-3-4-3---0-0-0-0-3-4-0-3-4-3---4-4-4-4-4-4-4-4-4-4-4-4-4-4-4-0-2-3-4---

Riff 8

E --------------------------------------
B --------------------------------------
G --------------------------------------
D ---------3-----/6-------------3-2-----
A ---------3-----/6-------------3-2-----
E -0-0-0-0-1-0-0-/4-00-00-00-00-1-0-0-0-

Riff 8A

E -----------------------------------------------------------------
B -----------------------------------------------------------------
G -----------------------------------------------------5-----------
D ---------6---4-5-------------------------6---4-5-----5---5-4-3-3-
A ---------6---4-5-------------------------6---4-5-----3---5-4-3-3-
E -0-0-0-0-4-0-2-3-0-0-0-0-0-0-0-0-0-0-0-0-4-0-2-3-0-0---0-3-2-1-1-

Riff 8B

E -----------------------------------------------------------------------------------
B -----------------------------------------------------------------------------------
G -----------------------------------------------------5-----------------------------
D ---------6---4-5-------------------------6---4-5-----5---5-4-3-3-6--5--4--5--4--3--
A ---------6---4-5-------------------------6---4-5-----3---5-4-3-3-6--5--4--5--4--3--
E -0-0-0-0-4-0-2-3-0-0-0-0-0-0-0-0-0-0-0-0-4-0-2-3-0-0---0-3-2-1-1-4--3--2--3--2--1--

Order

Riff 1 x 2
Riff 1/1A x 3
Riff 1B/1C x 1
Riff 2 x 3
Riff 2A x 1
Riff 2 x 1
Riff 2B x 1
Riff 2 x 1
Riff 2A x 1
Riff 3 x 3
Riff 3A x 1
Riff 4 x 2
Riff 4A x 2
Riff 4B x 1
Riff 2 x 3
Riff 2A x 1
Riff 2 x 3
Riff 2C x 1
Riff 4 x 2
Riff 4A x 2
Riff 4B x 1
Riff 5 x 1
Riff 6A x 1
Riff 2 x 3
Riff 2A x 1
Riff 2 x 3
Riff 2C x 1
Riff 4 x 2
Riff 4A x 2
Riff 4B x 1
Riff 5 x 1
Riff 6 x 2
Riff 7 x 2
Riff 7A x 2
Riff 7 x 2
Riff 7A x 1
Riff 7B x 1
Riff 8 x 8
Solo over Riff 8A x 6
Riff 8A x 1
Riff 8B x 1
Riff 2 x 3
Riff 2A x 1
Riff 2 x 3
Riff 2C x 1
Riff 4 x 2
Riff 4A x 2
Riff 4B x 1
Riff 5 x 1
Riff 6 x 2





Comments


Popular Dark Angel tabs & chords
Darkness Descends Bass Tabs
Loving Me To Death Chords
Near You Chords
Hunger Of The Undead Tabs
Merciless Death Tabs
Perish In Flames Tabs
The Burning Of Sodom Tabs
The New Priesthood Tabs
Welcome To The Slaughterhouse Tabs
Near You Ukulele


Song lyrics



↑ Back to top | Tablatures and chords are parodies/interpretations of the original songs. You may use it for private study, scholarship, research or language learning purposes only
© 2014 AZChords.com Contact us | Privacy policy | DMCA | Add/correct tabs | Request tabs | Top 50 tabs