>
 >
Rusted Angel

Rusted Angel Guitar Tabs

Darkane - Rusted Angel chords, tabs, tablatures, lyrics

Guitar lessons | Add/correct | Request | Top 50 tabs Artists:  A B C D E F G H I J K L M N O P Q R S T U V W X Y Z 0-9

Rusted Angel Guitar Tabs – Darkane

CD, Sheet music, Poster

Do you like Rusted Angel? Share with your friends now
Tabs
                                 Wounded

Band: Darkane

This is a pretty long but killer song, listen to it a few times before to attempt to play, enjoy!



Intro

	Guitar I & II
B ||-------------------|-----------------------|-------------------|
F#||-------------------|-----------------------|-------------------|
D ||--3----------------|--------------7--7--7--|--3----------------|
A ||--5----------------|--------------7--7--7--|--5----------------|
E ||--5----------------|--------------5--5--5--|--5----------------|
B ||--3----------------|-----------------------|--3----------------|


|-------------------|-------------------|--------------------|
|-------------------|-------------------|--4-----------------|
|--------------7----|--8----------------|--5-----------------|
|--------------7----|--8----------------|--5-----------------|
|--------------5----|--6----------------|--3-----------------|
|-------------------|-------------------|-----------2--------|


|--------------------------|-------------------|-----------------------|
|--------------------------|-------------------|-----------------------|
|--------------------------|--3----------------|--------------7--7--7--|
|--------------------------|--5----------------|--------------7--7--7--|
|--------------------------|--5----------------|--------------5--5--5--|
|--------------------------|--3----------------|-----------------------|


|-------------------|-------------------|-------------------|
|-------------------|-------------------|-------------------|
|--3----------------|--------------7----|--8----------------|
|--5----------------|--------------7----|--8----------------|
|--5----------------|--------------5----|--6----------------|
|--3----------------|-------------------|-------------------|


|--------------------|-------------------|---------------------|
|--4-----------------|-------------------|---------------------|
|--5-----------------|----------7--------|--5--------3----8----|
|--5-----------------|----------7--------|--5--------3----8----|
|--3-----------------|----------5--------|--3--------1----6----|
|-----------2--------|-------------------|---------------------|



	Guitar III
|--------------------|--------------------|--------------------|
|--8--------7--------|--4--------3--------|--8--------7--------|
|--------------------|--------------------|--------------------|
|--------------------|--------------------|--------------------|
|--------------------|--------------------|--------------------|
|--------------------|--------------------|--------------------|


|--------------------|--------------------|--------------------|
|--4--------3--------|--8--------6--------|--4--------3--------|
|--------------------|--------------------|--------------------|
|--------------------|--------------------|--------------------|
|--------------------|--------------------|--------------------|
|--------------------|--------------------|--------------------|


|--------------------------|--------------------|--------------------|
|--------------------------|--8--------7--------|--7--------8--------|
|--------------------------|--------------------|--------------------|
|--------------------------|--------------------|--------------------|
|--------------------------|--------------------|--------------------|
|--------------------------|--------------------|--------------------|


|--------------------|--------------------|--------------------|
|--8--------7--------|--7--------8--------|--8--------6--------|
|--------------------|--------------------|--------------------|
|--------------------|--------------------|--------------------|
|--------------------|--------------------|--------------------|
|--------------------|--------------------|--------------------|


|--------------------|--------------------|----------------------|
|--4--------3--------|----------8----7----|--7----4----3----4----|
|--------------------|--------------------|----------------------|
|--------------------|--------------------|----------------------|
|--------------------|--------------------|----------------------|
|--------------------|--------------------|----------------------|



	Guitar IV
|----------------------|----------------------|----------------------|
|--11--------10--------|--13--------11--------|--11--------10--------|
|----------------------|----------------------|----------------------|
|----------------------|----------------------|----------------------|
|----------------------|----------------------|----------------------|
|----------------------|----------------------|----------------------|


|----------------------|----------------------|----------------------|
|--13--------11--------|--11--------10--------|--13--------10--------|
|----------------------|----------------------|----------------------|
|----------------------|----------------------|----------------------|
|----------------------|----------------------|----------------------|
|----------------------|----------------------|----------------------|


|--------------------------|----------------------|----------------------|
|--------------------------|--11--------10--------|--13--------11--------|
|--------------------------|----------------------|----------------------|
|--------------------------|----------------------|----------------------|
|--------------------------|----------------------|----------------------|
|--------------------------|----------------------|----------------------|


|----------------------|----------------------|----------------------|
|--11--------10--------|--13--------11--------|--11--------10--------|
|----------------------|----------------------|----------------------|
|----------------------|----------------------|----------------------|
|----------------------|----------------------|----------------------|
|----------------------|----------------------|----------------------|


|----------------------|----------------------|---------------------|
|--13--------10--------|----------11----10----|--10----8------------|
|----------------------|----------------------|---------------------|
|----------------------|----------------------|---------------------|
|----------------------|----------------------|---------------------|
|----------------------|----------------------|---------------------|



	Guitar V (starts to play on the second half of the intro)
|--------------------|----------------------|--------------------|
|--15----------------|--16--------15--------|--15----------------|
|--------------------|----------------------|--------------------|
|--------------------|----------------------|--------------------|
|--------------------|----------------------|--------------------|
|--------------------|----------------------|--------------------|



|----------------------|--------------------|----------------------|
|--16--------15--------|--16----------------|--16--------15--------|
|----------------------|--------------------|----------------------|
|----------------------|--------------------|----------------------|
|----------------------|--------------------|----------------------|
|----------------------|--------------------|----------------------|



|----------------------|------------------------|
|----------16----15----|--15----13----11--------|
|----------------------|------------------------|
|----------------------|------------------------|
|----------------------|------------------------|
|----------------------|------------------------|


Riff A1		Guitar I
|----------------------------------|----------------------------------|
|----------------------------------|----------------------------------|
|----------------------------------|----------------------------------|
|----------------------------------|----------------------------------|
|----------7-7-7-7-2-2-2-2-1-1-1-1-|----------------------------------|
|--0-0-0-0-------------------------|--3-3-3-3-7-7-7-7-6-6-6-6-2-2-2-2-|



|----------------------------------|----------------------------------|
|----------------------------------|----------------------------------|
|----------------------------------|----------------------------------|
|----------------------------------|--5-5-5-5-----------------8-8-8-8-|
|----------7-7-7-7-2-2-2-2-1-1-1-1-|----------------------------------|
|--0-0-0-0-------------------------|----------7-7-7-7-6-6-6-6---------|


 		Guitar II
|-------------------|--------------------|------------------|
|-------------------|--------------------|------------------|
|-------------------|--------------------|------------------|
|--2----------------|--------------4--4--|------------------|
|--2----------------|--------------4--4--|------------------|
|--0----------------|--------------2--2--|------------------|



|----------------------------------|
|----------------------------------|
|----------------------------------|
|--------------------------5-5-5-5-|
|--7-7-7-7-5-5-5-5-5-5-5-5---------|
|----------------------------------|


Riff A2		Guitar I
|----------------------------------|----------------------------------|
|----------------------------------|----------------------------------|
|----------------------------------|----------------------------------|
|----------------------------------|----------------------------------|
|----------7-7-7-7-2-2-2-2-1-1-1-1-|----------------------------------|
|--0-0-0-0-------------------------|--3-3-3-3-7-7-7-7-6-6-6-6-2-2-2-2-|



|----------------------------------|----------------------------------|
|----------------------------------|----------------------------------|
|----------------------------------|----------------------------------|Repeat
|----------------------------------|--5-5-5-5-----------------8-8-8-8-|  3x
|----------7-7-7-7-2-2-2-2-1-1-1-1-|----------------------------------|
|--0-0-0-0-------------------------|----------7-7-7-7-6-6-6-6---------|


 		Guitar II
|----------------------------------|----------------------------------|
|----------------------------------|----------------------------------|
|----------------------------------|----------------------------------|
|----------------------------------|----------------------------------|
|----------7-7-7-7-2-2-2-2-1-1-1-1-|----------------------------------|
|--0-0-0-0-------------------------|--3-3-3-3-7-7-7-7-6-6-6-6-2-2-2-2-|



|----------------------------------|----------------------------------|
|----------------------------------|----------------------------------|
|----------------------------------|----------------------------------|Repeat
|----------------------------------|--------------------------5-5-5-5-|  3x
|----------7-7-7-7-2-2-2-2-1-1-1-1-|--7-7-7-7-5-5-5-5-5-5-5-5---------|
|--0-0-0-0-------------------------|----------------------------------|


Riff B		Guitar I
|----------------------------------|----------------------------|
|----------------------------------|----------------------------|
|----------------------------------|----------------------------|
|--------------------------7----9--|----------------------------|
|--2--2----2--2--2----8------------|----2--2--2----3--2----6----|
|--0--0----0--0--0-----------------|----0--0--0-----------------|



|-----------------------------------|--------------------------|
|-----------------------------------|--------------------------|
|-----------------------------------|--------------------------|Repeat
|-------------5--5-------4--5--5----|------------7--6-----6----|
|--7--7--6----3--3--3----2--3--3----|--3----8----------7-------|
|--5--5--4----------1---------------|--------------------------|


		Guitar II
|----------------------------------|----------------------------|
|----------------------------------|----------------------------|
|----------------------------------|-----------------------4----|
|--------------------------3----5--|----------------------------|
|--2--2----2--2--2----3------------|----2--2--2----3--2---------|
|--0--0----0--0--0-----------------|----0--0--0-----------------|



|-----------------------------------|---------------------------|
|-----------------------------------|---------------------------|
|-----------------------------------|---------------------------|Repeat
|-------------5--5-------4--5--5----|--7----7----10--9--6--9----|
|--7--7--6----3--3--3----2--3--3----|---------------------------|
|--5--5--4----------1---------------|---------------------------|


Riff C		Guitar I & II
|---------------------------------|---------------------------------|
|---------------------------------|---------------------------------|
|---------------------------------|---------------------------------|
|-------------------5--4-----4----|-------------------5--4-----4----|
|--2----2--3--2--0--------6-------|--2----2--3--2--0--------6-------|
|--0----0-------------------------|--0----0-------------------------|



|--------------------------------------|--------------------------------------|
|--------------------------------------|--------------------------------------|
|--------------------6-----------------|--------------------7--------5--------|
|-----------7-----------------9--------|-----------5--------------------------|
|--4--4--4-----4--4-----4--4-----4--4--|--3--3--3-----3--3-----3--3-----3--3--|
|--------------------------------------|--------------------------------------|



|---------------------------------|---------------------------------|
|---------------------------------|---------------------------------|
|---------------------------------|---------------------------------|
|-------------------5--4-----4----|-------------------5--4-----4----|
|--2----2--3--2--0--------6-------|--2----2--3--2--0--------6-------|
|--0----0-------------------------|--0----0-------------------------|



|--------------------------------------|----------------------------------|
|--------------------------------------|----------------------------------|
|--------------------6-----------------|--------------------7--------5----|Repeat
|-----------7-----------------9--------|-----------5----------------------|
|--4--4--4-----4--4-----4--4-----4--4--|--3--3--3-----3--3-----3--3-------|
|--------------------------------------|----------------------------------|


Riff D (I am the superior...)	Guitar I & II
|------------------------|---------------------|-------------------|
|------------------------|---------------------|--5----------------|
|------------------------|---------------------|--6----------------|
|------------------------|---------------------|--6----------------|
|--2---------------------|--2-------------2----|--4----------------|
|--0------------2--3--2--|--0--------3---------|-------------------|



|------------------------|------------------------|---------------------|
|--5---------------------|------------------------|---------------------|
|--5---------------------|------------------------|---------------------|
|--5---------------------|------------------------|---------------------|
|--3------------5--5--4--|--2---------------------|--2-------------2----|
|---------------3--3--2--|--0------------2--3--2--|--0--------3---------|



|-------------------|-------------------|
|--5----------------|--5----------------|
|--6----------------|--5----------------|
|--6----------------|--5----------------|
|--4----------------|--3----------------|
|-------------------|-------------------|


		Guitar III
|---------------------------------------------|
|---------------------------------------------|
|--12--12--12--11--11--11--9--9--9--8-9-8-----|
|------------------------------------------9--|
|---------------------------------------------|
|---------------------------------------------|



|---------------------------------------------|
|---------------------------------------------|
|--12--12--12--11--11--11--9--9--9--8-9-8-----|
|------------------------------------------9--|
|---------------------------------------------|
|---------------------------------------------|



|--------------------------------------|--------------------------------------|
|--------------------------------------|--------------------------------------|
|--9--9--9--8--8--8--6--6--6-----------|--9--9--9--7--7--7--5--5--5-----------|
|-----------------------------6--6--6--|-----------------------------5--5--5--|
|--------------------------------------|--------------------------------------|
|--------------------------------------|--------------------------------------|



|---------------------------------------------|
|---------------------------------------------|
|--12--12--12--11--11--11--9--9--9--8-9-8-----|
|------------------------------------------9--|
|---------------------------------------------|
|---------------------------------------------|



|---------------------------------------------|
|---------------------------------------------|
|--12--12--12--11--11--11--9--9--9--8-9-8-----|
|------------------------------------------9--|
|---------------------------------------------|
|---------------------------------------------|



|--------------------------------------|----------------------------------|
|--------------------------------------|----------------------------------|
|--9--9--9--8--8--8--6--6--6-----------|--9--9--9--7--7--7--5--5--5-------|
|-----------------------------6--6--6--|-----------------------------5----|
|--------------------------------------|----------------------------------|
|--------------------------------------|----------------------------------|


		Guitar IV
|---------------------------------------------|
|--12--12--12--10--10--10--8--8--8--7-8-7-----|
|------------------------------------------8--|
|---------------------------------------------|
|---------------------------------------------|
|---------------------------------------------|



|---------------------------------------------|
|--12--12--12--10--10--10--8--8--8--7-8-7-----|
|------------------------------------------8--|
|---------------------------------------------|
|---------------------------------------------|
|---------------------------------------------|



|--------------------------------------|--------------------------------------|
|--9--9--9--7--7--7--5--5--5-----------|--8--8--8--7--7--7--5--5--5-----------|
|-----------------------------6--6--6--|-----------------------------5--5--5--|
|--------------------------------------|--------------------------------------|
|--------------------------------------|--------------------------------------|
|--------------------------------------|--------------------------------------|



|---------------------------------------------|
|--12--12--12--10--10--10--8--8--8--7-8-7-----|
|------------------------------------------8--|
|---------------------------------------------|
|---------------------------------------------|
|---------------------------------------------|



|---------------------------------------------|
|--12--12--12--10--10--10--8--8--8--7-8-7-----|
|------------------------------------------8--|
|---------------------------------------------|
|---------------------------------------------|
|---------------------------------------------|



|--------------------------------------|----------------------------------|
|--9--9--9--7--7--7--5--5--5-----------|--8--8--8--7--7--7--5--5--5-------|
|-----------------------------6--6--6--|-----------------------------5----|
|--------------------------------------|----------------------------------|
|--------------------------------------|----------------------------------|
|--------------------------------------|----------------------------------|


Riff E
                    Guitar I & II
|----------------------------------|----------------------------------|
|----------------------------------|----------------------------------|
|----------------------------------|----------------------------------|Repeat
|----------------------------------|----------------------------------|  3x
|--------------6-6-6-6-6-6---------|--------------5-5-5-5-5-5---------|
|--4-4-4-4-4-4-------------4-4-4-4-|--0-0-0-0-0-0-------------0-0-0-0-|


Riff F
(floods of hate...)   Guitar I
|-----------------------------------|-----------------------------------|
|-----------------------------------|-----------------------------------|
|-----------------------------------|-----------------------------------|
|--7-----------10---------2---------|--9-----------10-----------7-------|
|----0-0-0-0-0----0-0-0-0---0-0-0-0-|----6-6-6-6-6----6-6-6-6-6---6-6-6-|
|-----------------------------------|-----------------------------------|



|------------------------------------|--------------------------------------|
|------------------------------------|--------------------------------------|
|------------------------------------|--8-----------11-----------9----------|Repeat
|--7-----------10---------14---------|----9-9-9-9-9----9-9-9-9-9---10-10-10-|  3x
|----0-0-0-0-0----0-0-0-0----0-0-0-0-|--------------------------------------|
|------------------------------------|--------------------------------------|


                    Guitar II
|-----------------------------------|-----------------------------------|
|-----------------------------------|-----------------------------------|
|-----------------------------------|-----------------------------------|
|--7-----------10---------2---------|--9-----------10-----------7-------|
|----0-0-0-0-0----0-0-0-0---0-0-0-0-|----6-6-6-6-6----6-6-6-6-6---6-6-6-|
|-----------------------------------|-----------------------------------|



|------------------------------------|--------------------------------------|
|------------------------------------|--------------------------------------|
|------------------------------------|--------------8-----------------------|Repeat
|--7-----------10---------10---------|--9-9-9-9-9-9---9-9-9-9-9-10-10-10-10-|  3x
|----0-0-0-0-0----0-0-0-0----0-0-0-0-|--------------------------------------|
|------------------------------------|--------------------------------------|


Riff G (solopart I)    Guitar I & II
|-------------------------------------|-----------------------|
|-------------------------------------|-----------------------|
|--------------------------------7----|--------------7--------|
|--12----------------------------7----|--------------7--------|
|--10--10-10-10--10--10-10-10-10-9----|--------------9--------|
|-------------------------------------|------10--10-----------|



|-----------------------------|---------------------|
|-----------------------------|---------------------|
|------------------------5----|------------5--------|
|--10--------------------5----|------------5--------|
|--8---8-8-8--8--8-8-8-8-7----|------------7--------|
|-----------------------------|------8--8-----------|



|----------------------------|---------------------|
|----------------------------|---------------------|
|-----------------------3----|------------3--------|
|--8--------------------5----|------------5--------|
|--6--6-6-6--6--6-6-6-6-5----|------5--5--5--------|
|-----------------------3----|------3--3--3--------|


Solopart II       Guitar I & II
|----------------------------|-----------------------|
|-----------------------7----|-----------------------|
|--2--------------------7----|--------------7--------|Repeat
|--2--------------------7----|--------------7--------|
|--4--4-4-4--4--4-4-4-4-9----|--------------9--------|
|----------------------------|------10--10-----------|



|----------------------------|---------------------|----------------------------|
|----------------------------|---------------------|----------------------------|
|-----------------------4----|------------4--------|-----------------------2----|
|--9--------------------4----|------------4--------|--7--------------------2----|
|--7--7-7-7--7--7-7-7-7-6----|------------6--------|--5--5-5-5--5--5-5-5-5-4----|
|----------------------------|------7--7-----------|----------------------------|



|---------------------|----------------------------|---------------------|
|---------------------|----------------------------|---------------------|
|------------2--------|-----------------------0----|------------0--------|
|------------2--------|--5--------------------2----|------------2--------|
|------------4--------|--3--3-3-3--3--3-3-3-3-2----|------2--2--2--------|
|------5--5-----------|-----------------------0----|------0--0--0--------|



|----------------------------|---------------------|------------------|
|-----------------------4----|------------4--------|------------------|
|--3--------------------2----|------------2--------|------------------|
|--2--------------------4----|------4--4--4--------|------------------|
|--4--------------------2----|------2--2--2--------|------------------|
|--2--2-2-2--2--2-2-2-2------|---------------------|------------------|


Riff H (tapping riff)    Guitar I & II
|-------------------|-------------------|-------------------|-------------------|
|--8----------------|--4----------------|--7----------------|--2----------------|
|--9----------------|--4----------------|--7----------------|--2----------------|
|--9----------------|--4----------------|--7----------------|--2----------------|
|--7----------------|--6----------------|--5----------------|--4----------------|
|-------------------|-------------------|-------------------|-------------------|



|-------------------|-------------------|-------------------|-------------------|
|--5----------------|--0----------------|--2----------------|--4----------------|
|--5----------------|--0----------------|--3----------------|--2----------------|
|--5----------------|--2----------------|--2----------------|--4----------------|
|--3----------------|--2----------------|--4----------------|--2----------------|
|-------------------|--0----------------|--2----------------|-------------------|



|-------------------|------------------|
|--4----------------|------------------|
|--2----------------|------------------|
|--4----------------|------------------|
|--2----------------|------------------|
|-------------------|------------------|


              Guitar III (tapping)
|--15--17--19--22--19--17--15--17--19--22--19--17--|
|--------------------------------------------------|
|--------------------------------------------------|
|--------------------------------------------------|
|--------------------------------------------------|
|--------------------------------------------------|



|--14--15--17--23--17--15--14--15--17--23--17--15--|
|--------------------------------------------------|
|--------------------------------------------------|
|--------------------------------------------------|
|--------------------------------------------------|
|--------------------------------------------------|



|--14--15--17--22--17--15--14--15--17--22--17--15--|
|--------------------------------------------------|
|--------------------------------------------------|
|--------------------------------------------------|
|--------------------------------------------------|
|--------------------------------------------------|



|--12--14--15--21--15--14--12--14--15--21--15--14--|
|--------------------------------------------------|
|--------------------------------------------------|
|--------------------------------------------------|
|--------------------------------------------------|
|--------------------------------------------------|



|--12--14--15--20--15--14--12--14--15--20--15--14--|
|--------------------------------------------------|
|--------------------------------------------------|
|--------------------------------------------------|
|--------------------------------------------------|
|--------------------------------------------------|



|--15--17--19--22--19--17--15--17--19--22--19--17--|
|--------------------------------------------------|
|--------------------------------------------------|
|--------------------------------------------------|
|--------------------------------------------------|
|--------------------------------------------------|



|--12--14--15--21--15--14--12--14--15--21--15--14--|
|--------------------------------------------------|
|--------------------------------------------------|
|--------------------------------------------------|
|--------------------------------------------------|
|--------------------------------------------------|



|--11--12--14--17--14--12--11--12--14--20--14--12--|--23-------------|-------|
|--------------------------------------------------|-----------------|-------|
|--------------------------------------------------|-----------------|-------|
|--------------------------------------------------|-----------------|-------|
|--------------------------------------------------|-----------------|-------|
|--------------------------------------------------|-----------------|-------|


                  Guitar IV (tapping)
|--12--14--15--19--15--14--12--14--15--19--15--14--|
|--------------------------------------------------|
|--------------------------------------------------|
|--------------------------------------------------|
|--------------------------------------------------|
|--------------------------------------------------|



|--11--12--14--19--14--12--11--12--14--19--14--12--|
|--------------------------------------------------|
|--------------------------------------------------|
|--------------------------------------------------|
|--------------------------------------------------|
|--------------------------------------------------|



|--10--12--14--17--14--12--10--12--14--17--14--12--|
|--------------------------------------------------|
|--------------------------------------------------|
|--------------------------------------------------|
|--------------------------------------------------|
|--------------------------------------------------|



|--9--10--12--17--12--10--9--10--12--17--12--10--|
|------------------------------------------------|
|------------------------------------------------|
|------------------------------------------------|
|------------------------------------------------|
|------------------------------------------------|



|--8--10--12--15--12--10--8--10--12--15--12--10--|
|------------------------------------------------|
|------------------------------------------------|
|------------------------------------------------|
|------------------------------------------------|
|------------------------------------------------|



|--7--8--10--15--10--8--7--8--10--15--10--8--|
|--------------------------------------------|
|--------------------------------------------|
|--------------------------------------------|
|--------------------------------------------|
|--------------------------------------------|



|--6--7--9--15--9--7--6--7--9--14--9--7--|
|----------------------------------------|
|----------------------------------------|
|----------------------------------------|
|----------------------------------------|
|----------------------------------------|



|--7--9--11--14--11--9--7--9--11--17--11--9--|--19-------------|--------------|
|--------------------------------------------|-----------------|--------------|
|--------------------------------------------|-----------------|--------------|
|--------------------------------------------|-----------------|--------------|
|--------------------------------------------|-----------------|--------------|
|--------------------------------------------|-----------------|--------------|


Riff A2
Riff B
Riff C
Riff D
Riff E
Riff F
Riff D

Riff D2
Outro		Guitar I & II
|----------------------------------|----------------------------------|
|----------------------------------|----------------------------------|
|----------------------------------|----------------------------------|
|----------------------------------|----------------------------------|
|--------------------6--5--3--5----|--------------------6--5--3--5----|
|--3--3--3--6--5--3----------------|--3--3--3--6--5--3----------------|



|----------------------------------------|
|----------------------------------------|
|----------------------------------------|
|---------------------9------------------|
|--7--7--7--10--7--7-----7--7--10--7--7--|
|----------------------------------------|


|----------------------------------------|----------------------------------|
|----------------------------------------|----------------------------------|
|----------------------------------------|----------------------------------|
|---------------------8------------------|----------------------------------|
|--6--6--6--10--6--6-----6--6--10--------|--------------------6--5--3--5----|
|----------------------------------6--5--|--3--3--3--6--5--3----------------|



|----------------------------------|----------------------------------------|
|----------------------------------|----------------------------------------|
|----------------------------------|----------------------------------------|
|----------------------------------|---------------------9------------------|
|--------------------6--5--3--5----|--7--7--7--10--7--7-----7--7--10--7--7--|
|--3--3--3--6--5--3----------------|----------------------------------------|



|-----------------------------------|------3------------|------------------|
|-----------------------------------|------3------------|------------------|
|-----------------------------------|------3------------|------------------|
|---------------------8-------------|------5------------|------------------|
|--6--6--6--10--6--6-----6--6--6----|------5------------|------------------|
|-----------------------------------|------3------------|------------------|


		Guitar III
|----------------------------------------------------|
|----------------------------------------------------|
|--15--15--15--14--14--14--12--12--12--11-12-11------|
|------------------------------------------------12--|
|----------------------------------------------------|
|----------------------------------------------------|



|----------------------------------------------------|
|----------------------------------------------------|
|--15--15--15--14--14--14--12--12--12--11-12-11------|
|------------------------------------------------12--|
|----------------------------------------------------|
|----------------------------------------------------|



|--------------------------------------------|--------------------------------------------|
|--------------------------------------------|--------------------------------------------|
|--12--12--12--11--11--11--9--9--9-----------|--12--12--12--10--10--10--8--8--8-----------|
|-----------------------------------9--9--9--|-----------------------------------8--8--8--|
|--------------------------------------------|--------------------------------------------|
|--------------------------------------------|--------------------------------------------|



|----------------------------------------------------|
|----------------------------------------------------|
|--15--15--15--14--14--14--12--12--12--11-12-11------|
|------------------------------------------------12--|
|----------------------------------------------------|
|----------------------------------------------------|



|----------------------------------------------------|
|----------------------------------------------------|
|--15--15--15--14--14--14--12--12--12--11-12-11------|
|------------------------------------------------12--|
|----------------------------------------------------|
|----------------------------------------------------|



|--------------------------------------------|----------------------------------------|
|--------------------------------------------|----------------------------------------|
|--12--12--12--11--11--11--9--9--9-----------|--12--12--12--10--10--10--8--8--8-------|
|-----------------------------------9--9--9--|-----------------------------------8----|
|--------------------------------------------|----------------------------------------|
|--------------------------------------------|----------------------------------------|



|-------------------|------------------|
|-------------------|------------------|
|-------------------|------------------|
|------8------------|------------------|
|-------------------|------------------|
|-------------------|------------------|



		Guitar IV
|----------------------------------------------------|
|--15--15--15--13--13--13--11--11--11--10-11-10------|
|------------------------------------------------11--|
|----------------------------------------------------|
|----------------------------------------------------|
|----------------------------------------------------|



|----------------------------------------------------|
|--15--15--15--13--13--13--11--11--11--10-11-10------|
|------------------------------------------------11--|
|----------------------------------------------------|
|----------------------------------------------------|
|----------------------------------------------------|



|--------------------------------------------|--------------------------------------------|
|--12--12--12--10--10--10--8--8--8-----------|--11--11--11--10--10--10--8--8--8-----------|
|-----------------------------------9--9--9--|-----------------------------------8--8--8--|
|--------------------------------------------|--------------------------------------------|
|--------------------------------------------|--------------------------------------------|
|--------------------------------------------|--------------------------------------------|



|----------------------------------------------------|
|--15--15--15--13--13--13--11--11--11--10-11-10------|
|------------------------------------------------11--|
|----------------------------------------------------|
|----------------------------------------------------|
|----------------------------------------------------|



|----------------------------------------------------|
|--15--15--15--13--13--13--11--11--11--10-11-10------|
|------------------------------------------------11--|
|----------------------------------------------------|
|----------------------------------------------------|
|----------------------------------------------------|



|--------------------------------------------|----------------------------------------|
|--12--12--12--10--10--10--8--8--8-----------|--11--11--11--10--10--10--8--8--8-------|
|-----------------------------------9--9--9--|-----------------------------------8----|
|--------------------------------------------|----------------------------------------|
|--------------------------------------------|----------------------------------------|
|--------------------------------------------|----------------------------------------|



|-------------------|------------------||
|-------------------|------------------||
|------7------------|------------------||
|-------------------|------------------||
|-------------------|------------------||
|-------------------|------------------||





Comments


Popular Darkane tabs & chords
Bound Tabs
Choas Vs Order Tabs
Contaminated Intro Tabs
Emanation Tabs
Fear Of Ones Self Tabs
Innocence Gone Tabs
Organic Canvas Intro Tabs
Vision Of Degradation Tabs


Song lyrics



↑ Back to top | Tablatures and chords are parodies/interpretations of the original songs. You may use it for private study, scholarship, research or language learning purposes only
© 2014 AZChords.com Contact us | Privacy policy | DMCA | Add/correct tabs | Request tabs | Top 50 tabs