>
 >
Innocence Gone

Innocence Gone Guitar Tabs

Darkane - Innocence Gone chords, tabs, tablatures, lyrics

Guitar lessons | Add/correct | Request | Top 50 tabs Artists:  A B C D E F G H I J K L M N O P Q R S T U V W X Y Z 0-9

Innocence Gone Guitar Tabs – Darkane

CD, Sheet music, Poster

Do you like Innocence Gone? Share with your friends now
Tabs
                                   Wounded.

Band: Darkane

DARKANE are a thrash metal band from sweden, check 'em out! Took a while to tab this but
it was worth it, this is accurate and includes the solo, have fun!


Riff A

		Guitar I
B ||----------------------------------------------|-------------------------------------------|
F#||----------------------------------------------|-------------------------------------------|
D ||*------------10--9--10------------14--11--13--|------------17--14--16---------------------|
A ||*---------------------------------------------|-------------------------------------------|
E ||-------------8---7--8-------------12--9---11--|------------15--12--14---------------------|
B ||---0--0-0-0-------------0--0-0-0--------------|--0--0-0-0--------------0--0-0-0--0--3--1--|



|---------------------------------------------|------------------------------------------------|
|---------------------------------------------|------------------------------------------------|
|------------10--9--10------------14--11--13--|------------17--14--16--------------------------|
|---------------------------------------------|------------------------12--12--12--12--12--12--|
|------------8---7--8-------------12--9---11--|------------15--12--14--8---8---8---8---8---8---|
|--0--0-0-0-------------0--0-0-0--------------|--0--0-0-0--------------------------------------|



|---------------------------------------------|-------------------------------------------|
|---------------------------------------------|-------------------------------------------|
|------------10--9--10------------14--11--13--|------------17--14--16---------------------|
|---------------------------------------------|-------------------------------------------|
|------------8---7--8-------------12--9---11--|------------15--12--14---------------------|
|--0--0-0-0-------------0--0-0-0--------------|--0--0-0-0--------------0--0-0-0--0--3--1--|



|------------------------------------------|-----------------------------------|
|------------------------------------------|-----------------------------------|
|------------10--9--10---------------------|--------------------7--9--10--9----|
|------------------------------------------|-----------6--7--9-----------------|
|------------8---7--8----------------------|--5--7--8--------------------------|
|--0--0-0-0-------------0--0-0-0--4--5--7--|-----------------------------------|




		Guitar II
|------------------------------------------|-------------------------------------------|
|------------------------------------------|-------------------------------------------|
|*------------5--4--5------------10--7--9--|------------14--11--13---------------------|
|*-----------------------------------------|-------------------------------------------|
|-------------3--2--3------------8---5--7--|------------12--9---11---------------------|
|---0--0-0-0-----------0--0-0-0------------|--0--0-0-0--------------0--0-0-0--0--3--1--|



|-----------------------------------------|------------------------------------------------|
|-----------------------------------------|------------------------------------------------|
|------------5--4--5------------10--7--9--|------------14--11--13--------------------------|
|-----------------------------------------|------------------------12--12--12--12--12--12--|
|------------3--2--3------------8---5--7--|------------12--9---11--8---8---8---8---8---8---|
|--0--0-0-0-----------0--0-0-0------------|--0--0-0-0--------------------------------------|



|-----------------------------------------|-------------------------------------------|
|-----------------------------------------|-------------------------------------------|
|------------5--4--5------------10--7--9--|------------14--11--13---------------------|
|-----------------------------------------|-------------------------------------------|
|------------3--2--3------------8---5--7--|------------12--9---11---------------------|
|--0--0-0-0-----------0--0-0-0------------|--0--0-0-0--------------0--0-0-0--0--3--1--|



|-----------------------------------------|------------------------------------------|
|-----------------------------------------|------------------------10--12--13--12----|
|------------5--4--5----------------------|-------------9--10--13--------------------|
|-----------------------------------------|--9--10--12-------------------------------|
|------------3--2--3------------7--8--11--|------------------------------------------|
|--0--0-0-0-----------0--0-0-0------------|------------------------------------------|




Riff B

		Guitar I
|---------------------------------------|----------------------------------|
|---------------------------------------|----------------------------------|
|*--------------------------------------|----------------------------------|
|*--------------------------------------|----------------------------------|
|---3--3--3--3-----------2-----3-----2--|--2-------------3--5-----5--7-----|
|---1--1--1--1--1--1--1--1--1--1--1--1--|--0----0--0--0--------0--------0--|



|--------------------------------------|-----------------------------------|
|--------------------------------------|-----------------------------------|
|--------------------------------------|----------------------------------*|
|--------------------------------------|----------------------------------*|Repeat
|--3--3--3--3-----------2-----3-----2--|--5-------------5-----3-----2------|
|--1--1--1--1--1--1--1--1--1--1--1--1--|--3----3--3--3-----3-----3-----3---|




		Guitar II
|---------------------------------------|----------------------------------|
|---------------------------------------|----------------------------------|
|*--------------------------------------|----------------------------------|
|*--------------------------------------|----------------3--5-----5--7-----|
|---3--3--3--3-----------2-----3-----2--|--2-------------------------------|
|---1--1--1--1--1--1--1--1--1--1--1--1--|--0----0--0--0--------0--------0--|



|--------------------------------------|-----------------------------------|
|--------------------------------------|-----------------------------------|
|--------------------------------------|----------------------------------*|
|--------------------------------------|----------------3-----2-----------*|Repeat
|--3--3--3--3-----------2-----3-----2--|--5-------------------------5------|
|--1--1--1--1--1--1--1--1--1--1--1--1--|--3----3--3--3-----3-----3-----3---|



Riff A
Riff B


Riff C

		Guitar I
|--------------------------------------------|--------------------------------------|
|--------------------------------------------|--------------------------------------|
|--------------------------------------------|--------------------------------------|
|--10--10--10--10--10--10--9--9--9-----------|--------------------------------------|
|--7---7---7---7---7---7---7--7--7--------5--|--------------------5--5--5--5--3--3--|
|-----------------------------------7--8-----|----1-1-1--1--1--1--1--3--3--3--1--1--|



|--------------------------------------------|------------------------------------------------|
|--------------------------------------------|------------------------------------------------|
|--------------------------------------------|------------------------------------------------|
|--10--10--10--10--10--10--9--9--9-----------|------------------------------------------------|
|--7---7---7---7---7---7---7--7--7--------8--|--------------------------12--10--10--10--7--7--|
|-----------------------------------7--8-----|----10-10-10--10--10--10--10--8---8---8---5--5--|



|--------------------------------------------|--------------------------------------|
|--------------------------------------------|--------------------------------------|
|--------------------------------------------|--------------------------------------|
|--10--10--10--10--10--10--9--9--9-----------|--------------------------------------|
|--7---7---7---7---7---7---7--7--7--------5--|--------------------5--5--5--5--3--3--|
|-----------------------------------7--8-----|----1-1-1--1--1--1--1--3--3--3--1--1--|



|--------------------------------------------|----------------------------------------------|
|--------------------------------------------|----------------------------------------------|
|--------------------------------------------|----------------------------------------------|
|--10--10--10--10--10--10--9--9--9-----------|----------------------------------------------|
|--7---7---7---7---7---7---7--7--7--------8--|--------------------------12--12--12--12------|
|-----------------------------------7--8-----|----10-10-10--10--10--10--10--10--10--10------|




		Guitar II
|--------------------------------------------|--------------------------------------|
|--------------------------------------------|--------------------------------------|
|--------------------------------------------|--------------------------------------|
|--10--10--10--10--10--10--9--9--9-----------|--------------------------------------|
|--7---7---7---7---7---7---7--7--7--5--7--8--|--------------------5--5--5--5--3--3--|
|--------------------------------------------|----1-1-1--1--1--1--1--3--3--3--1--1--|



|--------------------------------------------|------------------------------------------------|
|--------------------------------------------|------------------------------------------------|
|--------------------------------------------|------------------------------------------------|
|--10--10--10--10--10--10--9--9--9--------7--|------------------------------------------------|
|--7---7---7---7---7---7---7--7--7--5--7-----|--------------------------12--10--10--10--7--7--|
|--------------------------------------------|----10-10-10--10--10--10--10--8---8---8---5--5--|



|--------------------------------------------|--------------------------------------|
|--------------------------------------------|--------------------------------------|
|--------------------------------------------|--------------------------------------|
|--10--10--10--10--10--10--9--9--9-----------|--------------------------------------|
|--7---7---7---7---7---7---7--7--7--5--7--8--|--------------------5--5--5--5--3--3--|
|--------------------------------------------|----1-1-1--1--1--1--1--3--3--3--1--1--|



|--------------------------------------------|----------------------------------------------|
|--------------------------------------------|----------------------------------------------|
|--------------------------------------------|----------------------------------------------|
|--10--10--10--10--10--10--9--9--9--------7--|----------------------------------------------|
|--7---7---7---7---7---7---7--7--7--5--7-----|--------------------------12--12--12--12------|
|--------------------------------------------|----10-10-10--10--10--10--10--10--10--10------|



		Guitar III
|--------------------------------------------------|------------------|
|--13--13--13--13--13--13--12--12--12--12--12--10--|------------------|
|--------------------------------------------------|------------------|
|--------------------------------------------------|------------------|
|--------------------------------------------------|------------------|
|--------------------------------------------------|------------------|



|-------------------------------------------------|------------------|
|--13--13--13--13--13--13--12--12--12--12--12--6--|------------------|
|-------------------------------------------------|------------------|
|-------------------------------------------------|------------------|
|-------------------------------------------------|------------------|
|-------------------------------------------------|------------------|



|--------------------------------------------------|------------------|
|--13--13--13--13--13--13--12--12--12--12--12--10--|------------------|
|--------------------------------------------------|------------------|
|--------------------------------------------------|------------------|
|--------------------------------------------------|------------------|
|--------------------------------------------------|------------------|



|--------------------------------------------------|------------------|
|--13--13--13--13--13--13--12--12--12--12--12--18--|------------------|
|--------------------------------------------------|------------------|
|--------------------------------------------------|------------------|
|--------------------------------------------------|------------------|
|--------------------------------------------------|------------------|



		Guitar IV
|--------------------------------------|------------------|
|--------------------------------------|------------------|
|--9--9--9--9--9--9--7--7--7--7--7--5--|------------------|
|--------------------------------------|------------------|
|--------------------------------------|------------------|
|--------------------------------------|------------------|



|--------------------------------------|------------------|
|--------------------------------------|------------------|
|--9--9--9--9--9--9--7--7--7--7--7--5--|------------------|
|--------------------------------------|------------------|
|--------------------------------------|------------------|
|--------------------------------------|------------------|



|--------------------------------------|------------------|
|--------------------------------------|------------------|
|--9--9--9--9--9--9--7--7--7--7--7--5--|------------------|
|--------------------------------------|------------------|
|--------------------------------------|------------------|
|--------------------------------------|------------------|



|---------------------------------------|------------------|
|-----------------------------------13--|------------------|
|--9--9--9--9--9--9--7--7--7--7--7--14--|------------------|
|---------------------------------------|------------------|
|---------------------------------------|------------------|
|---------------------------------------|------------------|



Riff A
Riff B
Riff C


Riff D

		Guitar II
|--------------------------------------|----------------------------------|
|--------------------------------------|----------------------------------|
|--------------------------------------|-----------------------------5----|
|-----------5--------------------------|-----------5-----------------3----|
|--------------4-----------------------|--------------4--------------3----|
|--2--3--2--------3--2--2--2--2--2--2--|--2--3--2--------3--2--2--2-------|



|--------------------------------------|----------------------------------|
|--------------------------------------|----------------------------------|
|--------------------------------------|----------------------------------|Repeat
|-----------5--------------------------|-----------5-----------------8----|  3x
|--------------4-----------------------|--------------4--------------6----|
|--2--3--2--------3--2--2--2--2--2--2--|--2--3--2--------3--2--2--2--6----|




Guitar I is silent the first round and then plays...

		Guitar I
|------------------|-----------------|-----------------|-----------------|
|------------------|-----------------|-----------------|-----------------|
|------------------|-----------------|---Pick slide----|-----------------|
|--4---------------|-----------------|-----------------|-----------------|
|--4---------------|-----------------|-----------------|-----------------|
|--2---------------|-----------------|-----------------|-----------------|


|---------------------------------------|----------------------------------|
|---------------------------------------|----------------------------------|
|*--------------------------------------|-----------------------------5----|
|*-----------8--------------------------|-----------8-----------------3----|
|---------------7-----------------------|--------------7--------------3----|
|---2--3--2--------6--2--2--2--2--2--2--|--2--3--2--------6--2--2--2-------|



|--------------------------------------|-----------------------------------|
|--------------------------------------|-----------------------------------|
|--------------------------------------|----------------------------------*|
|-----------8--------------------------|-----------8-----------------8----*|Repeat
|--------------7-----------------------|--------------7--------------6-----|
|--2--3--2--------6--2--2--2--2--2--2--|--2--3--2--------6--2--2--2--6-----|



Riff E

		Guitar I
|------------------------------------------|-----------------------------------|
|------------------------------------------|-----------------------------------|
|*-----------------------------------------|------------------------------5----|
|*-----------8-----------------------------|-----------8------------------3----|
|---------------7--------------------------|--------------7---------------3----|
|---2--3--2--------6--2--2-2-2--2-2-2--2-2-|--2--3--2--------6--2--2-2-2-------|



|-----------------------------------------|------------------------------------|
|-----------------------------------------|------------------------------------|
|-----------------------------------------|-----------------------------------*|
|-----------8-----------------------------|-----------8------------------8----*|Repeat
|--------------7--------------------------|--------------7---------------6-----|
|--2--3--2--------6--2--2-2-2--2-2-2--2-2-|--2--3--2--------6--2--2-2-2--6-----|




		Guitar II
|------------------------------------------|-----------------------------------|
|------------------------------------------|-----------------------------------|
|*-----------------------------------------|------------------------------5----|
|*-----------5-----------------------------|-----------5------------------3----|
|---------------4--------------------------|--------------4---------------3----|
|---2--3--2--------3--2--2-2-2--2-2-2--2-2-|--2--3--2--------3--2--2-2-2-------|



|-----------------------------------------|------------------------------------|
|-----------------------------------------|------------------------------------|
|-----------------------------------------|-----------------------------------*|
|-----------5-----------------------------|-----------5------------------8----*|Repeat
|--------------4--------------------------|--------------4---------------6-----|
|--2--3--2--------3--2--2-2-2--2-2-2--2-2-|--2--3--2--------3--2--2-2-2--6-----|



Riff F1
First half of the solo

		Guitar I
|-------------------|------------------|-------------------|------------------|
|--4----------------|------------------|--6----------------|------------------|
|--5----------------|------------------|--5----------------|------------------|
|--5----------------|------------------|--6----------------|------------------|
|--3----------------|------------------|--4----------------|------------------|
|-------------------|------------------|-------------------|------------------|



|--8----------------|------10----8--------|--13----------------|------------------|
|--8----------------|------8-----8--------|--13----------------|------------------|
|--8----------------|------8-----8--------|--13----------------|------------------|
|--8----------------|------8-----8--------|--11----------------|------------------|
|-------------------|---------------------|--------------------|------------------|
|-------------------|---------------------|--------------------|------------------|



		Guitar II
|-------------------|------------------|-------------------|
|--4----------------|------------------|--6----------------|
|--5----------------|------------------|--6----------------|
|--5----------------|------------------|--6----------------|
|--3----------------|------------------|--4----------------|
|-------------------|------------------|-------------------|



|--------------------------------------|-------------------|-----------------|
|--6--8--8--8--8--8--8--6--6--6--6--6--|--4----------------|-----------------|
|--6--6--6--6--6--6--6--6--6--6--6--6--|--5----------------|-----------------|
|--6--6--6--6--6--6--6--6--6--6--6--6--|--5----------------|-----------------|
|--4--4--4--4--4--4--4--4--4--4--4--4--|--3----------------|-----------------|
|--------------------------------------|-------------------|-----------------|



|-------------------|---------------------------------|
|--6----------------|--6--8--8--8--8--8--8------------|
|--6----------------|--6--6--6--6--6--6--6------------|
|--6----------------|--6--6--6--6--6--6--6------------|
|--4----------------|--4--4--4--4--4--4--4------------|
|-------------------|---------------------------------|



Riff F2
Second half of the solo

		Guitar I & II
|--------------------------------------|--------------------------------------|
|--------------------------------------|--------------------------------------|
|--------------------------------------|--------------------------------------|
|--------------------------------------|--------------------6--5--3--5--3-----|
|--3--3--3--3--3--3--3--3--3--3--3--3--|--3--3--3--3--3--3-----------------6--|
|--------------------------------------|--------------------------------------|



|--------------------------------------|--------------------------------------|
|--------------------------------------|--------------------------------------|
|--------------------------------------|--8--6--5--6--5-----5-----------------|
|--------------------------------------|-----------------8-----8--6--8--6--5--|
|--4--4--4--4--4--4--4--4--4--4--4--4--|--------------------------------------|
|--------------------------------------|--------------------------------------|



|--------------------------------------|--------------------------------------|
|--------------------------------------|--------------------------------------|
|--------------------------------------|--------------------------------------|
|--------------------------------------|--------------------6--5--3--5--3-----|
|--3--3--3--3--3--3--3--3--3--3--3--3--|--3--3--3--3--3--3-----------------6--|
|--------------------------------------|--------------------------------------|



|--------------------------------------|---------------------------------------|
|--------------------------------------|-----------------------------8--9--11--|
|--------------------------------------|--8--6--5--6--5-----5--6--8------------|
|--------------------------------------|-----------------8---------------------|
|--4--4--4--4--4--4--4--4--4--4--4--4--|---------------------------------------|
|--------------------------------------|---------------------------------------|



Riff F
The solo

		Guitar III
|--------------------------|------------------------8--11--10--|
|--------------------------|------------------8--9-------------|
|-----------------------8--|--12--------7--8-------------------|
|--10------------8--10-----|-----------------------------------|
|--------------------------|-----------------------------------|
|--------------------------|-----------------------------------|


                      Tap     and slide
|--9------------8--9--16--|----------18--14b-----13--11--|--13b---------------10--|
|-------------------------|------------------------------|------------------------|
|-------------------------|------------------------------|------------------------|
|-------------------------|------------------------------|------------------------|
|-------------------------|------------------------------|------------------------|
|-------------------------|------------------------------|------------------------|



|--11--13-------------------------------|
|----------9--12--13--------------------|
|---------------------10--12------------|
|---------------------------------------|
|-----------------------------------15--|
|---------------------------------------|



|--------------------------------------------------|--20--------------------------|
|------------------------------------------18--21--|--------21----20----18--------|
|--------------17--18--17--------------18----------|------------------------------|
|------15--18--------------18--17--20--------------|------------------------------|
|--16----------------------------------------------|------------------------------|
|--------------------------------------------------|------------------------------|



On the last measure guitar IV fills in and
continues the solo...

		Guitar IV
|----------------------------------------16-18-|--20--------------18--16--|
|-------------------------------16-18-20-------|--------------------------|
|----------------------15-17-18----------------|--------------------------|
|----------17-15-17-18-------------------------|--------------------------|
|----------------------------------------------|--------------------------|
|----------------------------------------------|--------------------------|



|--20------18--16--20-18-16----16----------|------------------------|
|---------------------------20----20-18-16-|--18b-----19b-18~-------|
|------------------------------------------|------------------------|
|------------------------------------------|------------------------|
|------------------------------------------|------------------------|
|------------------------------------------|------------------------|



|----------------------------13--|--15-------------------------------------------|
|--21b-----21--20--21~-----------|------11--14-----------------------------------|
|--------------------------------|--------------10--12--9--10------9-------------|
|--------------------------------|-----------------------------11-----10--11--8--|
|--------------------------------|-----------------------------------------------|
|--------------------------------|-----------------------------------------------|



|-------------------------------------------------|
|--------------------------------------------9-11-|
|--------------------9-10----9-------9-10-12------|
|--10--------8-10-11------11---10-11--------------|
|-------------------------------------------------|
|-------------------------------------------------|



|-----------------------------13-15-16-15~-------13--|--20b---------------|
|--------------------13-14-16------------------------|--------------------|
|-----------12-13-15---------------------------------|--------------------|
|--11-13-15------------------------------------------|--------------------|
|----------------------------------------------------|--------------------|
|----------------------------------------------------|--------------------|




		Guitar I
|-------------------------------------------|----------------------------------------------|
|-------------------------------------------|----------------------------------------------|
|-----------10--9--10------------14--11--13-|-----------17--14--16-------------------------|
|-------------------------------------------|-----------------------12--12--12--12--12--12-|
|-----------8---7--8-------------12--9---11-|-----------15--12--14--8---8---8---8---8---8--|
|-0--0-0-0-------------0--0-0-0-------------|-0--0-0-0-------------------------------------|



		Guitar II
|-------------|--------------------------------------|
|-------------|--------------------------------------|
|-------------|--------------------------------------|
|-------------|--------------12--12--12--12--12--12--|
|-------------|--------------8---8---8---8---8---8---|
|-------------|--------------------------------------|



Riff B
Riff A
2x Riff C
Riff D

The last round the measure is played...

		Guitar I
|--------------------------------------||
|--------------------------------------||
|--------------------------------------||
|-----------8-----------------8--8--8--||
|--------------7--------------6--6--6--||
|--2--3--2--------6--2--2--2--6--6--6--||



		Guitar II
|--------------------------------------||
|--------------------------------------||
|--------------------------------------||
|-----------5-----------------8--8--8--||
|--------------4--------------6--6--6--||
|--2--3--2--------3--2--2--2--6--6--6--||





Comments


Popular Darkane tabs & chords
Bound Tabs
Choas Vs Order Tabs
Contaminated Intro Tabs
Emanation Tabs
Fear Of Ones Self Tabs
Organic Canvas Intro Tabs
Rusted Angel Tabs
Vision Of Degradation Tabs


Song lyrics



↑ Back to top | Tablatures and chords are parodies/interpretations of the original songs. You may use it for private study, scholarship, research or language learning purposes only
© 2014 AZChords.com Contact us | Privacy policy | DMCA | Add/correct tabs | Request tabs | Top 50 tabs