>
 >
Emanation

Emanation Guitar Tabs

Darkane - Emanation chords, tabs, tablatures, lyrics

Guitar lessons | Add/correct | Request | Top 50 tabs Artists:  A B C D E F G H I J K L M N O P Q R S T U V W X Y Z 0-9

Emanation Guitar Tabs – Darkane

CD, Sheet music, Poster

Do you like Emanation? Share with your friends now
Tabs
Emanation Of Fear




Riff A

Guitar II starts to play Riff A two times. Then guitar I joins
and the riff is played six times.




Riff B		Guitar I
B ||--------------------------------|------------------------------|
F#||--------------------------------|------------------------------|
D ||--------------------------------|------------------------------|Repeat
A ||------------------------13------|------------------------------| 7x
E ||--11---------10-----------------|------------11----------------|
B ||------8-8-8------8-8-8------8-8-|--8--8-8-8------9-9-9--6-6-6--|


		Guitar II
|--------------------------------|------------------------------|
|--------------------------------|------------------------------|
|--------------------------------|------------------------------|Repeat
|--10---------10---------10------|------------11----------------| 7x
|--------------------------------|------------------------------|
|------8-8-8------8-8-8------8-8-|--8--8-8-8------9-9-9--6-6-6--|



Riff C	     Guitar I & II
|--------------------------|
|--------------------------|
|--------------------------|Repeat
|--3--2--3--5--2--5--6--5--| 3x
|--1--0--1--3--0--3--4--3--|
|--1--0--1--3--0--3--4--3--|

Mute Riff C very hard the first two times
Lighten up the third and fourth



Riff D		Guitar I
|---------------------------|----------------------------|---------------------------|
|---------------------------|----------------------------|---------------------------|
|---------------------------|----------------------------|---------------------------|
|--3----3-3-3-3-3--------4--|----4--4----5-5-5-5-4-4-4-4-|--3----3-3-3-3-3--------4--|
|--1----1-1-1-1-1--2--2--2--|----2--2----2-2-2-2-2-2-2-2-|--1----1-1-1-1-1--2--2--2--|
|------------------0--0-----|----------------------------|------------------0--0-----|



|-------------------------|---------------------------|----------------------------|
|-------------------------|---------------------------|----------------------------|
|-------------------------|---------------------------|----------------------------|
|----------2--4--2--------|--3----3-3-3-3-3--------4--|----4--4----5-5-5-5-4-4-4-4-|
|----2--3-----------3--2--|--1----1-1-1-1-1--2--2--2--|----2--2----2-2-2-2-2-2-2-2-|
|-------------------------|------------------0--0-----|----------------------------|



|---------------------------|------------------------|
|---------------------------|------------------------|
|---------------------------|------------------------|
|--3----3-3-3-3-3--------4--|----------2--4--2-------|
|--1----1-1-1-1-1--2--2--2--|----2--3-----------3----|
|------------------0--0-----|------------------------|



Riff D		Guitar II
|---------------------------|----------------------------|---------------------------|
|---------------------------|----------------------------|---------------------------|
|---------------------------|----------------------------|---------------------------|
|--3----3-3-3-3-3--------4--|----4--4----5-5-5-5-4-4-4-4-|--3----3-3-3-3-3--------4--|
|--1----1-1-1-1-1--2--2--2--|----2--2----2-2-2-2-2-2-2-2-|--1----1-1-1-1-1--2--2--2--|
|------------------0--0-----|----------------------------|------------------0--0-----|



|-------------------------|---------------------------|----------------------------|
|-------------------------|---------------------------|----------------------------|
|-------------------------|---------------------------|----------------------------|
|----------5--7--5--------|--3----3-3-3-3-3--------4--|----4--4----5-5-5-5-4-4-4-4-|
|----6--7-----------7--6--|--1----1-1-1-1-1--2--2--2--|----2--2----2-2-2-2-2-2-2-2-|
|-------------------------|------------------0--0-----|----------------------------|



|---------------------------|------------------------|
|---------------------------|------------------------|
|---------------------------|------------------------|
|--3----3-3-3-3-3--------4--|----------5--7--5-------|
|--1----1-1-1-1-1--2--2--2--|----6--7-----------7----|
|------------------0--0-----|------------------------|



Riff B
Riff D


Riff E		Guitar I
|---------------------|------------------|----------------------|------------------|
|---------------------|------------------|----------------------|------------------|
|--10--------------9--|------------------|--13--------------13--|------------------|
|---------------------|------------------|----------------------|------------------|
|--8---------------7--|------------------|--11--------------11--|------------------|
|---------------------|------------------|----------------------|------------------|



|----------------------|------------------|--------------------|------------------|
|----------------------|------------------|--------------------|------------------|
|--12--------------11--|------------------|--10----------------|------------------|
|----------------------|------------------|--------------------|------------------|Repeat
|--10--------------9---|------------------|--8-----------------|------------------|
|----------------------|------------------|--------------------|------------------|



Riff E		Guitar II
|----------------------|------------------|----------------------|------------------|
|----------------------|------------------|----------------------|------------------|
|--13--------------12--|------------------|--18--------------17--|------------------|
|----------------------|------------------|----------------------|------------------|
|--11--------------10--|------------------|--16--------------15--|------------------|
|----------------------|------------------|----------------------|------------------|



|----------------------|------------------|--------------------|------------------|
|----------------------|------------------|--------------------|------------------|
|--16--------------15--|------------------|--13----------------|------------------|
|----------------------|------------------|--------------------|------------------|Repeat
|--14--------------13--|------------------|--11----------------|------------------|
|----------------------|------------------|--------------------|------------------|




Guitar III starts to play a melody the second time.

		Guitar III
|---------------------------|--------------------|--------------------------|----------------|
|---------------------------|--------------------|--------------13--14--13--|----------------|
|--10--------9--10--13--12--|------------13--12--|--10----------------------|----------------|
|---------------------------|--------------------|--------------------------|----------------|
|---------------------------|--------------------|--------------------------|----------------|
|---------------------------|--------------------|--------------------------|----------------|


|-------------------|------------------|--------------------|------------------|
|--15-----------14--|------------------|--13----------------|------------------|
|-------------------|------------------|--------------------|------------------|
|-------------------|------------------|--------------------|------------------|
|-------------------|------------------|--------------------|------------------|
|-------------------|------------------|--------------------|------------------|


Riff B
Riff C
Riff D
Riff E


Riff F		Guitar I & II
|-------------------|-------------------|-------------------|-------------------|
|--2----------------|--4----------------|--2----------------|--4----------------|
|--2----------------|--5----------------|--2----------------|--5----------------|
|--4----------------|--6----------------|--4----------------|--6----------------|
|--4----------------|--6----------------|--4----------------|--6----------------|
|--2----------------|--4----------------|--2----------------|--4----------------|



|-------------------|-------------------|-------------------|-------------------|
|--3----------------|--4----------------|--3----------------|--4----------------|
|--4----------------|--5----------------|--4----------------|--5----------------|
|--4----------------|--6----------------|--4----------------|--6----------------|
|--2----------------|--6----------------|--2----------------|--6----------------|
|-------------------|--4----------------|-------------------|--4----------------|



|--------------------|-------------------|--------------------|-------------------|
|--9-----------------|--7----------------|--9-----------------|--7----------------|
|--10----------------|--7----------------|--10----------------|--7----------------|
|--10----------------|--9----------------|--10----------------|--9----------------|
|--8-----------------|--9----------------|--8-----------------|--9----------------|
|--------------------|--7----------------|--------------------|--7----------------|



|-------------------|-------------------|-------------------|-------------------|
|-------------------|--7----------------|-------------------|--7----------------|
|--5----------------|--7----------------|--5----------------|--7----------------|
|--6----------------|--7----------------|--6----------------|--7----------------|
|--6----------------|--5----------------|--6----------------|--5----------------|
|--4----------------|-------------------|--4----------------|-------------------|



Riff F		Guitar III
|-----------------------|---------------------|---------------------|-----------------------|
|-----------------------|---------------------|---------------------|-----------------------|
|-----------------------|-----------5---------|-----------6---------|--8------6-8-6----5----|
|--4------4----6--7--4--|--6-------------6----|--7-------------7----|-----------------------|
|-----------------------|---------------------|---------------------|-----------------------|
|-----------------------|---------------------|---------------------|-----------------------|



|---------------------|---------------------|---------------------|---------------------|
|---------------------|-----------4---------|-----------7---------|-----------9---------|
|--7--------6----4----|--5-------------5----|--7-------------7----|--8-------------8----|
|---------------------|---------------------|---------------------|---------------------|
|---------------------|---------------------|---------------------|---------------------|
|---------------------|---------------------|---------------------|---------------------|



|----------------------|----------------------|----------------------|----------------------|
|----------------------|----------------------|----------------------|----------------------|
|--10------------10----|--11--------9----7----|--10------------10----|--11------------11----|
|----------------------|----------------------|----------------------|----------------------|
|----------------------|----------------------|----------------------|----------------------|
|----------------------|----------------------|----------------------|----------------------|



|--------------------|----------------------|--------------------|--------------------|
|--9------------9----|--10--------7---------|--9------------9----|--10----------------|
|--------------------|-----------------7----|--------------------|--------------------|
|--------------------|----------------------|--------------------|--------------------|
|--------------------|----------------------|--------------------|--------------------|
|--------------------|----------------------|--------------------|--------------------|


Riff A

Guitar III & IV plays a melody over Riff A

		Guitar III
|-------------------|--------------------|-------------------|--------------------|
|-------------------|--------------------|-------------------|--------------------|
|--9----------------|--10----------------|--9----------------|--12----------------|
|-------------------|--------------------|-------------------|--------------------|
|-------------------|--------------------|-------------------|--------------------|
|-------------------|--------------------|-------------------|--------------------|



|-------------------|--------------------|-------------------|--------------------|
|-------------------|--------------------|-------------------|--------------------|
|--9----------------|--10----------------|--9----------------|--7-----------------|
|-------------------|--------------------|-------------------|--------------------|
|-------------------|--------------------|-------------------|--------------------|
|-------------------|--------------------|-------------------|--------------------|



		Guitar IV
|-------------------|--------------------|-------------------|--------------------|
|--9----------------|--10----------------|--9----------------|--12----------------|
|-------------------|--------------------|-------------------|--------------------|
|-------------------|--------------------|-------------------|--------------------|
|-------------------|--------------------|-------------------|--------------------|
|-------------------|--------------------|-------------------|--------------------|



|-------------------|--------------------|-------------------|--------------------|
|--9----------------|--10----------------|--9----------------|--6-----------------|
|-------------------|--------------------|-------------------|--------------------|
|-------------------|--------------------|-------------------|--------------------|
|-------------------|--------------------|-------------------|--------------------|
|-------------------|--------------------|-------------------|--------------------|




Riff G (Solo)		Guitar I & II
|------------------------|--------------------|------------------------|---------------------|
|------------------------|--------------------|------------------------|---------------------|
|--------6------------6--|----------6----6----|--------7------------7--|-----------7----7----|
|--------7------------7--|----------7----7----|--------8------------8--|-----------8----8----|
|--0--0---------0--0-----|----0--0------------|--0--0---------0--0-----|-----0--0------------|
|------------------------|--------------------|------------------------|---------------------|


|------------------------|--------------------|-------------------------|--------------------|
|------------------------|--------------------|-------------------------|--------------------|
|--------6------------6--|----------6----6----|--------9------------9---|----------9----9----|
|--------7------------7--|----------7----7----|--------10-----------10--|----------10---10---|
|--0--0---------0--0-----|----0--0------------|--0--0---------0--0------|----0--0------------|
|------------------------|--------------------|-------------------------|--------------------|




Riff G			Lead Guitar
|--17------------17----|----------------------------|------------------------------|
|--20---bend to--22-20-|--17-20-17----------17--18--|--20--14----15--17--------14--|
|----------------------|----------------------------|--------------------15--------|
|----------------------|----------------------------|------------------------------|
|----------------------|----------------------------|------------------------------|
|----------------------|----------------------------|------------------------------|



|----------------------------------|----------------------------|------------------------------|
|--15------------------------------|----------------------------|------------------------------|
|------15--12----------15----------|----------------------------|--------------14--15--14--13--|
|--------------15--14------14--12--|--11--14--------------------|------14--15------------------|
|----------------------------------|----------13--10--12--------|------------------------------|
|----------------------------------|----------------------------|------------------------------|



|--------------12----15----12----15----|--20----------------|
|--------13----------------------------|--------------------|
|--12----------------------------------|--------------------|
|--------------------------------------|--------------------|
|--------------------------------------|--------------------|
|--------------------------------------|--------------------|



|--17-17-17-17-17-17-17-17-17-17-17-17-17-17-17-17-|
|--------------------------------------------------|
|--------------------------------------------------|
|--------------------------------------------------|
|--------------------------------------------------|
|--------------------------------------------------|



|--18-17-15----15----------------------------------|
|-----------18----18-17-15-18-17-15-14-17-15-14----|
|-----------------------------------------------17-|
|--------------------------------------------------|
|--------------------------------------------------|
|--------------------------------------------------|



|--------------------------------------------------|------------------------------------|
|-----------14-15-14----14-------------------------|------------------------------------|
|--14-15-17----------17----17-15-14-17-15-14----14-|--15-14-----------------------------|
|--------------------------------------------17----|--------17-15-14-15-14--------------|
|--------------------------------------------------|-----------------------17-16--------|
|--------------------------------------------------|------------------------------------|



|-17h12p15h12p15h12p15h12p18h12p15h12p15h12p15h12p21h12p15h12p15h12p15h12p18h12p15h12p15h12p15h|
|----------------------------------------------------------------------------------------------|
|----------------------------------------------------------------------------------------------|
|----------------------------------------------------------------------------------------------|
|----------------------------------------------------------------------------------------------|
|----------------------------------------------------------------------------------------------|



|-17h12p15h12p15h12p15h12p18h12p15h12p15h12p15h12p22h12p15h12p15h12p15h12p18h12p15h12p15h12p15h|
|----------------------------------------------------------------------------------------------|
|----------------------------------------------------------------------------------------------|
|----------------------------------------------------------------------------------------------|
|----------------------------------------------------------------------------------------------|
|----------------------------------------------------------------------------------------------|


 Harmonics, pulling the tremolo bar
|---------|------------------|
|--2------|------------------|
|--2------|------------------|
|---------|------------------|
|---------|------------------|
|---------|------------------|


Riff C
Riff B
Riff D
Riff E

Riff E is repeated and Guitar III and IV plays another melody

		Guitar III
|--------------------16--15--|--------------16--15--|--------------20--21--20--|
|--18--------17--18----------|----------------------|--18----------------------|
|----------------------------|----------------------|--------------------------|
|----------------------------|----------------------|--------------------------|
|----------------------------|----------------------|--------------------------|
|----------------------------|----------------------|--------------------------|



|-----------------|--22--------------21--|------------------|--20--------15--18--16------|
|-----------------|----------------------|------------------|------------------------17--|
|-----------------|----------------------|------------------|----------------------------|
|-----------------|----------------------|------------------|----------------------------|
|-----------------|----------------------|------------------|----------------------------|
|-----------------|----------------------|------------------|----------------------------|



|------------------------|--------------------16--15--|--------------16--15--|
|--20--18----------------|--18--------17--18----------|----------------------|
|----------17------------|----------------------------|----------------------|
|------------------------|----------------------------|----------------------|
|------------------------|----------------------------|----------------------|
|------------------------|----------------------------|----------------------|



|--------------20--21--20--|------------------|--22--------------21--|------------------|
|--18----------------------|------------------|----------------------|------------------|
|--------------------------|------------------|----------------------|------------------|
|--------------------------|------------------|----------------------|------------------|
|--------------------------|------------------|----------------------|------------------|
|--------------------------|------------------|----------------------|------------------|



|--20----------------|------------------||
|--------------------|------------------||
|--------------------|------------------||
|--------------------|------------------||
|--------------------|------------------||
|--------------------|------------------||



		Guitar IV
|--16--------------12--|------------------|--16--------------16--|------------------|
|----------------------|------------------|----------------------|------------------|
|----------------------|------------------|----------------------|------------------|
|----------------------|------------------|----------------------|------------------|
|----------------------|------------------|----------------------|------------------|
|----------------------|------------------|----------------------|------------------|



|--19--------------18--|------------------|--16----------------|------------------||
|----------------------|------------------|--------------------|------------------||
|----------------------|------------------|--------------------|------------------||
|----------------------|------------------|--------------------|------------------||Repeat
|----------------------|------------------|--------------------|------------------||
|----------------------|------------------|--------------------|------------------||





Comments


Popular Darkane tabs & chords
Bound Tabs
Choas Vs Order Tabs
Contaminated Intro Tabs
Fear Of Ones Self Tabs
Innocence Gone Tabs
Organic Canvas Intro Tabs
Rusted Angel Tabs
Vision Of Degradation Tabs


Song lyrics



↑ Back to top | Tablatures and chords are parodies/interpretations of the original songs. You may use it for private study, scholarship, research or language learning purposes only
© 2014 AZChords.com Contact us | Privacy policy | DMCA | Add/correct tabs | Request tabs | Top 50 tabs