» » »

Contaminated Tabs (ver.1)

Artists:  A B C D E F G H I J K L M N O P Q R S T U V W X Y Z # 

Contaminated Tabs (ver.1)

Darkane
Rating:
0/5 (0 votes)

Tabs too difficult? Try these video lessons and learn fast.
                (Intro)
------------------------------------------------------------------------------
                                   DARKANE
                                 CONTAMINATED
                                LAYERS OF LIES
------------------------------------------------------------------------------

Intro: Play twice
  B||-------------------------|------------------------|-------------------||
 F#||o------------------------|------------------------|------------------o||
  D||--------0----------------|-------0----------------|-------------------||
  A||--2--2-----2-------------|-2--2-----2-------------|-1--1--1-----------||
  E||o-2-----------2----------|-2-----------2----------|----------2--2--2-o||
  B||--0-----------0---3~-----|-0-----------0---3~-----|-------------------||

Pre-Chorus played twice before next riff
 B||-----------------------------|--------------------|
F#||o----------------------------|--------------------|
 D||-----------------------------|--------------------|
 A||-----------------------------|--------------10-7\-|
 E||o---------8--8--5-8-7--------|-8--8--5-8-7---8----|
 B||--0-12-\---00-00-----0000000-|--00-00-----00--0---|

 B|----------------------|-----------------||
F#|----------------------|----------------o||
 D|----------------------|-----------------||
 A|----------------------|-----------------||
 E|---8--8--5-8-7--------|----3-------5---o||
 B|----00-00-----0000000-|-1111--1-3333----||

Pre Chorus played several times throughout the song
            
Tabs too difficult? Try these video lessons and learn fast.


comments powered by Disqus
↑ Back to top | Tablatures and chords are parodies/interpretations of the original songs. You may use it for private study, scholarship, research or language learning purposes only