>
 >
Bound

Bound Guitar Tabs

Darkane - Bound chords, tabs, tablatures, lyrics

Guitar lessons | Add/correct | Request | Top 50 tabs Artists:  A B C D E F G H I J K L M N O P Q R S T U V W X Y Z 0-9

Bound Guitar Tabs – Darkane

CD, Sheet music, Poster

Do you like Bound? Share with your friends now
Tabs
                                  Wounded

Band: Darkane

This song is pretty crazy, good luck keeping up!


Riff A		Guitar I
B ||------------------------------|-----------------------------|
F#||------------------------------|-----------------------------|
D ||------------------------------|-----------------------------|
A ||------------------------------|-------------12--6--7--9-----|
E ||----------7--8------5--8------|---------11---------------8--|
B ||--0-0-0-0-------0-0-------0-0-|--0--0-0---------------------|



|------------------------------|---------------------------------|
|------------------------------|---------------------------------|
|------------------------------|---------------------------------|
|------------------------------|-------------12--------------12--|
|----------7--8------5--8------|---------11------11--12--14------|
|--0-0-0-0-------0-0-------0-0-|--0--0-0-------------------------|



|------------------------------|-----------------------------|
|------------------------------|-----------------------------|
|------------------------------|-----------------------------|
|------------------------------|-------------12--6--7--9-----|
|----------7--8------5--8------|---------11---------------8--|
|--0-0-0-0-------0-0-------0-0-|--0--0-0---------------------|



------------------------------|--------------------------|
------------------------------|--------------------------|
------------------------------|--------------------------|Repeat
------------------------------|---------6--7-------------|
----------7--8------5--8------|---------------8--7--5----|
--0-0-0-0-------0-0-------0-0-|--0--0-0------------------|




Riff A		Guitar II
|------------------------------|--------------------------------|
|------------------------------|--------------------------------|
|------------------------------|--------------------------------|
|------------------------------|-------------12--9--10--12------|
|----------7--8------5--8------|---------11-----------------11--|
|--0-0-0-0-------0-0-------0-0-|--0--0-0------------------------|



|------------------------------|--------------------------------|
|------------------------------|--------------------------------|
|------------------------------|----------------------------10--|
|------------------------------|-------------12--9--10--12------|
|----------7--8------5--8------|---------11---------------------|
|--0-0-0-0-------0-0-------0-0-|--0--0-0------------------------|



|------------------------------|--------------------------------|
|------------------------------|--------------------------------|
|------------------------------|--------------------------------|
|------------------------------|-------------12--9--10--12------|
|----------7--8------5--8------|---------11-----------------11--|
|--0-0-0-0-------0-0-------0-0-|--0--0-0------------------------|



|------------------------------|-----------------------------|
|------------------------------|-----------------------------|
|------------------------------|-----------------------------|Repeat
|------------------------------|---------9--10---------------|
|----------7--8------5--8------|----------------12--11--8----|
|--0-0-0-0-------0-0-------0-0-|--0--0-0---------------------|





Riff B		Guitar I
|------------------------------|------------------------------|
|------------------------------|------------------------------|
|------------------------------|------------------------------|
|------------------------------|------------------------------|
|------------------------------|------------------------------|
|--5-5-5--9-9-9--7-7-7--5-5-5--|--4-4-4--7-7-7--5-5-5--4-4-4--|



|------------------------------|------------------------------|
|------------------------------|------------------------------|
|------------------------------|------------------------------|
|------------------------------|------------------------------|
|--4-4-4--4-4-4--4-4-4--4-4-4--|--3-3-3--3-3-3--3-3-3--3-3-3--|
|--2-2-2--2-2-2--2-2-2--2-2-2--|--1-1-1--1-1-1--1-1-1--1-1-1--|



|------------------------------|------------------------------|
|------------------------------|------------------------------|
|------------------------------|------------------------------|
|------------------------------|------------------------------|
|------------------------------|------------------------------|
|--5-5-5--9-9-9--7-7-7--5-5-5--|--4-4-4--7-7-7--5-5-5--4-4-4--|



|------------------------------|------------------------------|
|------------------------------|------------------------------|
|------------------------------|------------------------------|Repeat
|------------------------------|------------------------------|
|--4-4-4--4-4-4--4-4-4--4-4-4--|--5-5-5--5-5-5--2-2-2--2-2-2--|
|--2-2-2--2-2-2--2-2-2--2-2-2--|--3-3-3--3-3-3--0-0-0--0-0-0--|


Riff B		Guitar II
|------------------------------|------------------------------|
|------------------------------|------------------------------|
|------------------------------|------------------------------|
|------------------------------|------------------------------|
|------------------------------|----------------5-5-5--4-4-4--|
|--2-2-2--5-5-5--4-4-4--2-2-2--|--1-1-1--4-4-4----------------|



|------------------------------|------------------------------|
|------------------------------|------------------------------|
|------------------------------|------------------------------|
|------------------------------|------------------------------|
|--4-4-4--4-4-4--4-4-4--4-4-4--|--3-3-3--3-3-3--3-3-3--3-3-3--|
|--2-2-2--2-2-2--2-2-2--2-2-2--|--1-1-1--1-1-1--1-1-1--1-1-1--|



|------------------------------|------------------------------|
|------------------------------|------------------------------|
|------------------------------|------------------------------|
|------------------------------|------------------------------|
|------------------------------|----------------5-5-5--4-4-4--|
|--2-2-2--5-5-5--4-4-4--2-2-2--|--1-1-1--4-4-4----------------|



|------------------------------|------------------------------|
|------------------------------|------------------------------|
|------------------------------|------------------------------|Repeat
|------------------------------|------------------------------|
|--4-4-4--4-4-4--4-4-4--4-4-4--|--5-5-5--5-5-5--2-2-2--2-2-2--|
|--2-2-2--2-2-2--2-2-2--2-2-2--|--3-3-3--3-3-3--0-0-0--0-0-0--|




Riff C		Guitar I
|--------------------------|--------------------------|
|------------------6----8--|--------------------------|
|--6-7-6---6--7------------|--6-7-6---6--7-------6----|
|--------8-----------------|--------8-------8---------|
|--------------------------|--------------------------|
|--------------------------|--------------------------|



|-------------------------|------------------------|
|--8--6---------11-6------|------------------------|
|----------7---------7----|--9----4-5-7------------|Repeat
|-------------------------|--------------7----6----|
|-------------------------|------------------------|
|-------------------------|------------------------|



Riff C		Guitar II
|--------------------------|--------------------------|
|--------------------------|--------------------------|
|------------------7----9--|--------------------------|
|--7-8-7-5-7--8------------|--7-8-7-5-7--8------------|
|--------------------------|----------------8----7----|
|--------------------------|--------------------------|



|-------------------------|------------------------|
|-------------------------|------------------------|
|--9--7---------10-7------|------------------------|Repeat
|----------8---------8----|--9----6-7-9------------|
|-------------------------|--------------8----7----|
|-------------------------|------------------------|



Intro of Riff A		Guitar I
|------------------------------|-----------------------------|
|------------------------------|-----------------------------|
|------------------------------|-----------------------------|
|------------------------------|-------------12--6--7--9-----|
|----------7--8------5--8------|---------11---------------8--|
|--0-0-0-0-------0-0-------0-0-|--0--0-0---------------------|



|------------------------------|---------------------------------|
|------------------------------|---------------------------------|
|------------------------------|---------------------------------|
|------------------------------|-------------12--------------12--|
|----------7--8------5--8------|---------11------11--12--14------|
|--0-0-0-0-------0-0-------0-0-|--0--0-0-------------------------|




Intro of Riff A		Guitar II
|--------------------------|---------------------|--------------------------|
|--------------------------|---------------------|--------------------------|
|--------------------------|---------------------|--------------------------|
|--------------------------|---------------------|--------------------------|
|--2-2-2-2-----2-2-----2-2-|--2--2-2-------------|--2-2-2-2-----2-2-----2-2-|
|--0-0-0-0-----0-0-----0-0-|--0--0-0-------------|--0-0-0-0-----0-0-----0-0-|



---------------------|
---------------------|
---------------------|
---------------------|
--2--2-2-------------|
--0--0-0-------------|


Riff A
Riff B


Riff D (Bound by them which I bind...)	Guitar I & II
|---------------------------|----------------------------|
|---------------------------|----------------------------|
|--5---------4--------------|--5---------4---------------|Repeat
|--5---------4--------------|--5---------4---------------| 3x
|--7---------6----2--3-2-0--|--7---------6---------------|
|-----0-0-0-----------------|-----0-0-0-------3--5-3-2-0-|


Guitar I plays another round of Riff D while Guitar II plays a melody

Riff D Melody		Guitar II

|--12------11----------|--------------------|--------------------|------------------|
|----------------------|----------12--------|--8------7----------|------------------|
|--9-------8-----------|--------------------|--------------------|------------------|
|----------------------|----------9---------|--5------4----------|------------------|
|----------------------|--------------------|--------------------|------------------|
|----------------------|--------------------|--------------------|------------------|



|--12------11----------|--------------------|----------------------|--------------------|
|----------------------|----------12--------|--13------10----------|--10----------------|
|--9-------8-----------|--------------------|----------------------|--------------------|
|----------------------|----------9---------|--10------7-----------|--7-----------------|
|----------------------|--------------------|----------------------|--------------------|
|----------------------|--------------------|----------------------|--------------------|



Riff E (solo part)	Guitar I & II
|--------------------------|--------------------------|--------------------------|
|--------------------------|--------------------------|--------------------------|
|--------------------------|--------------------------|--------------------------|
|-----2-------2------------|-----2-------2------------|-----5-------5------------|
|-----2-------2------------|-----2-------2------------|-----5-------5------------|
|--0--0----0--0----0-0-0-0-|--0--0----0--0----0-0-0-0-|--3--3----3--3----3-3-3-3-|



|--------------------------|
|--------------------------|
|-----5-------4------------|Repeat
|-----5-------4------------| 3x
|-----3----3--2----2-2-2-2-|
|--3-----------------------|


Riff F (second solo part)	Guitar I & II
|--------------------------|--------------------------|
|-----1-------1------------|-----1-------1------------|
|-----2-------2------------|-----2-------2------------|
|-----2-------2------------|-----2-------2------------|
|--0--0----0--0----0-0-0-0-|--0--0----0--0----0-0-0-0-|
|--------------------------|--------------------------|


|--------------------------|--------------------------|--------------------------|
|-----4-------4------------|-----4-------4------------|-----5-------5------------|
|-----4-------4------------|-----4-------4------------|-----4-------4------------|
|-----4-------4------------|-----4-------4------------|-----5-------5------------|
|--6--6----6--6----6-6-6-6-|--6--6----6--6----6-6-6-6-|--3--3----3--3----3-3-3-3-|
|--------------------------|--------------------------|--------------------------|



|--------------------------|--------------------------|--------------------------|
|-----5-------5------------|-----4-------4------------|-----4-------4------------|
|-----4-------4------------|-----4-------4------------|-----4-------4------------|
|-----5-------5------------|-----4-------4------------|-----4-------4------------|
|--3--3----3--3----3-3-3-3-|--6--6----6--6----6-6-6-6-|--6--6----6--6----6-6-6-6-|
|--------------------------|--------------------------|--------------------------|


Riff C
Riff B
Riff D


Riff G (outro)		Guitar I
|--2----------------|--------------------|--2----------------|---------------------|
|--2----------------|--------------------|--2----------------|---------------------|
|--4----------------|------3--------3----|--4----------------|---------------------|Repeat
|--4----------------|------3--------3----|--4----------------|--5---------3--------| ītil the
|--2----------------|------1--------1----|--2----------------|--5----4----3--------| end of
|--2----------------|------1--------1----|--2----------------|-------4-------------|    time

Guitar II plays with feedback, harmonicks and whammybar





Comments


Popular Darkane tabs & chords
Choas Vs Order Tabs
Contaminated Intro Tabs
Emanation Tabs
Fear Of Ones Self Tabs
Innocence Gone Tabs
Organic Canvas Intro Tabs
Rusted Angel Tabs
Vision Of Degradation Tabs


Song lyrics



↑ Back to top | Tablatures and chords are parodies/interpretations of the original songs. You may use it for private study, scholarship, research or language learning purposes only
© 2014 AZChords.com Contact us | Privacy policy | DMCA | Add/correct tabs | Request tabs | Top 50 tabs