» » »

Dari, Tutto Regolare Bass tabs (ver.1)

Artists:  A B C D E F G H I J K L M N O P Q R S T U V W X Y Z # 

Tutto Regolare Bass tabs (ver.1)

Dari Tabs
 Rating:
4/5 (4 votes)
Tutto Regolare lessons Tabs too difficult? Try these video lessons and learn fast
                ++++++++++++++++++++++++
| Dari- Tutto Regolare |
++++++++++++++++++++++++


"Ti sintonizzi sul mio cuore..."

Tuning: Standard EADG


Intro
1.
G|-------------------------------------------------------------------------|
D|-------------------------------------------------------------------------|
A|-00000000-00000000-55555555-55555555-------------------55555555-55555555-|
E|-------------------------------------22222222-22222222-------------------|

2.
G|-------------------|
D|-------------------|
A|-------------------|
E|-2~----------------|

Verse
"A casa tutto regolare..."
3.
G|------------------------------------------------------------------------|
D|------------------------------------------------------------------------|
A|-------------------55555555-55555555-00000000-00000000-44444444-4444----|
E|-22222222-22222222------------------------------------------------------|

"La salute tutto regolare..."
4.
G|------------------------------------------------------------------------|
D|------------------------------------------------------------------------|
A|-------------------55555x------------00000x------------44444x-----------|
E|-22222x-----------------------------------------------------------------|

Pre-Chorus
"Vorrei avere un televisore..."
5.
G|-------------------------------------------------------------|
D|-------------0---------------4-2~-2~-4~-7\-0-----------------|
A|---------------4~-4~-4/5~-5~-----------------4~-4~-5~--------|
E|-0~-0~-2~-4~-------------------------------------------------|

Chorus
"Chiedo scusa..."
6.
G|-------------------------------------------------------------------------|
D|-------------------------------------------------------------------------|
A|-00000000-00000000-55555555-55555555-------------------55555555-55555555-|
E|-------------------------------------22222222-22222222-------------------|

"Chiedo scusa..."
7.
G|-------------------------------------------------------------------------|
D|-------------------------------------------------------------------------|
A|-00000000-00000000-55555555-55555555-------------------44444444-44444444-|
E|-------------------------------------22222222-22222222-------------------|

Outro
"Sereno di piu..."
8.
G|-------------------------------------------------------------------------|
D|-------------------------------------------------------------------------|
A|-------------------55555555-55555555-00000000-00000000-44444444-44444444-|--x2
E|-22222222-22222222-------------------------------------------------------|

Verse
"Un destino tutto regolare..."
9.
G|-----------------------------------------------------------------|
D|-----------------------------------------------------------------|
A|-----------------5-5-5-5-5-5-5-5-0-0-0-0-0-0-0-0-4-4-4-4-4-4-4---|
E|-2-2-2-2-2-2-2-2-------------------------------------------------|

"E per lo space tutto regolare..."
10.
G|------------------------------------------------------------------------|
D|------------------------------------------------------------------------|
A|-------------------55555x------------00000x------------44444x-----------|
E|-22222x-----------------------------------------------------------------|

Pre-Chorus
"Vorrei avere un televisore..."
11.
G|-------------------------------------------------------------|
D|-------------0---------------4-2~-2~-4~-7\-0-----------------|
A|---------------4~-4~-4/5~-5~-----------------4~-4~-5~--------|
E|-0~-0~-2~-4~-------------------------------------------------|

Chorus
"Chiedo scusa..."
12.
G|-------------------------------------------------------------------------|
D|-------------------------------------------------------------------------|
A|-00000000-00000000-55555555-55555555-------------------55555555-55555555-|
E|-------------------------------------22222222-22222222-------------------|

"Chiedo scusa..."
13.
G|-------------------------------------------------------------------------|
D|-------------------------------------------------------------------------|
A|-00000000-00000000-55555555-55555555-------------------44444444-44444444-|
E|-------------------------------------22222222-22222222-------------------|

Outro
"Sereno di piu..."
14.
G|-------------------------------------------------------------------------|
D|-------------------------------------------------------------------------|
A|-------------------55555555-55555555-00000000-00000000-44444444-44444444-|--x6
E|-22222222-22222222-------------------------------------------------------|

"Contento di piu..."
15.
G|----------------------------------------------------------|
D|----------------------------------------------------------|
A|----------------------------------------------------------|
E|-2~-------------------------------------------------------|


Please rate thank you!


Lyrics:

A casa tutto regolare
L'amore tutto regolare
A lavoro tutto regolare
Lo stipendio alla fine del mese
La salute tutto regolare
Una realtà tutta regolare
Una vita tutta regolare
Un futuro certo più sicuro

Vorrei avere un televisore 
che mandi in diretta un can*le migliore
Grande la gioia poco il dolore
Tu ti sintonizzi sul mio cuore

Chiedo scusa ma non ne posso più
Sembra perfetto ma tutto regolare mi sta stretto
Chiedo scusa ma non ne posso più
Perché scusa?
Se mi diverto di più
Sereno di più
Allegro di più
Felice di più
Contento di più

Un destino tutto regolare
All'aldilà tutto regolare
Per l'andata tutto regolare
Per il ritorno non ho il biglietto
E per lo space tutto regolare
E l'iPod tutto regolare
Ed in chat tutto regolare
E la mail non la controllo più



+++++++++++++++++++++++++++++++++
| RaiLeff                       |
+++++++++++++++++++++++++++++++++
            
Submit corrections

comments powered by Disqus
↑ Back to top | Dari Bass for Tutto Regolare. Lyrics for acoustic guitar and electric guitar. Tablatures and chords are parodies/interpretations of the original songs. You may use it for private study, scholarship, research or language learning purposes only