» » »

Play And Stop Tabs (ver.1)

Artists:  A B C D E F G H I J K L M N O P Q R S T U V W X Y Z # 

Play And Stop Tabs (ver.1)

Dari
Rating:
0/5 (0 votes)

Hard to play? Try these video lessons and learn fast.
                Palm Mute : .

Intro:

e|----------------|----------------|----------------|----------------|
B|----------------|----------------|----------------|----------------|
G|----4-------4---|----4-------4---|----2-------2---|----2-------2---| 
D|----------------|----------------|----------------|----------------|x1
A|----------------|----------------|----------------|----------------|
E|3-3---3-3-3---3-|3-3---3-3-3---3-|2-2---2-2-2---2-|2-2---2-2-2---2-|

e|----------------|----------------|----------------|----------------|
B|----------------|----------------|----------------|----------------|
G|----0-------0---|----0-------0---|----2-------2---|----2-------2---| 
D|----------------|----------------|0-0---0-0-0---0-|0-0---0-0-0---0-|x1
A|----------------|----------------|----------------|----------------|
E|0-0---0-0-0---0-|0-0---0-0-0---0-|----------------|----------------|

Verse (x3) :

e|----------------|----------------|----------------|----------------|
B|----------------|----------------|----------------|----------------|
G|----4-------4---|----4-------4---|----2-------2---|----2-------2---| 
D|----------------|----------------|----------------|----------------|x1
A|----------------|----------------|----------------|----------------|
E|3-3---3-3-3---3-|3-3---3-3-3---3-|2-2---2-2-2---2-|2-2---2-2-2---2-|

e|----------------|----------------|----------------|----------------|
B|----------------|----------------|----------------|----------------|
G|----0-------0---|----0-------0---|----2-------2---|----2-------2---| 
D|----------------|----------------|0-0---0-0-0---0-|0-0---0-0-0---0-|x1
A|----------------|----------------|----------------|----------------|
E|0-0---0-0-0---0-|0-0---0-0-0---0-|----------------|----------------|

Refrain (Distorsion) (x2) :

e|----------------|----------------|----------------|----------------|
B|----------------|----------------|----------------|----------------|
G|----------------|----------------|----------------|----------------|
D|5---5---5-5-5-5-|--5-5---5-5-5-5-|4---4---4-4-4-4-|--4-4---4-4-4-4-|x1 
A|5---5---5-5-5-5-|--5-5---5-5-5-5-|4---4---4-4-4-4-|--4-4---4-4-4-4-|
E|3---3---3-3-3-3-|--3-3---3-3-3-3-|2---2---2-2-2-2-|--2-2---2-2-2-2-|

e|----------------|----------------|----------------|----------------|
B|----------------|----------------|----------------|----------------|
G|----------------|----------------|7---7---7-7-7-7-|--7-7---7-7-7-7-|
D|2---2---2-2-2-2-|--2-2---2-2-2-2-|7---7---7-7-7-7-|--7-7---7-7-7-7-|x1 
A|2---2---2-2-2-2-|--2-2---2-2-2-2-|5---5---5-5-5-5-|--5-5---5-5-5-5-|
E|0---0---0-0-0-0-|--0-0---0-0-0-0-|----------------|----------------|

Verse (x3) :

e|----------------|----------------|----------------|----------------|
B|----------------|----------------|----------------|----------------|
G|----4-------4---|----4-------4---|----2-------2---|----2-------2---| 
D|----------------|----------------|----------------|----------------|x1
A|----------------|----------------|----------------|----------------|
E|3-3---3-3-3---3-|3-3---3-3-3---3-|2-2---2-2-2---2-|2-2---2-2-2---2-|

e|----------------|----------------|----------------|----------------|
B|----------------|----------------|----------------|----------------|
G|----0-------0---|----0-------0---|----2-------2---|----2-------2---| 
D|----------------|----------------|0-0---0-0-0---0-|0-0---0-0-0---0-|x1
A|----------------|----------------|----------------|----------------|
E|0-0---0-0-0---0-|0-0---0-0-0---0-|----------------|----------------|

Refrain (Distorsion) (x2) :

e|----------------|----------------|----------------|----------------|
B|----------------|----------------|----------------|----------------|
G|----------------|----------------|----------------|----------------|
D|5---5---5-5-5-5-|--5-5---5-5-5-5-|4---4---4-4-4-4-|--4-4---4-4-4-4-|x1 
A|5---5---5-5-5-5-|--5-5---5-5-5-5-|4---4---4-4-4-4-|--4-4---4-4-4-4-|
E|3---3---3-3-3-3-|--3-3---3-3-3-3-|2---2---2-2-2-2-|--2-2---2-2-2-2-|

e|----------------|----------------|----------------|----------------|
B|----------------|----------------|----------------|----------------|
G|----------------|----------------|7---7---7-7-7-7-|--7-7---7-7-7-7-|
D|2---2---2-2-2-2-|--2-2---2-2-2-2-|7---7---7-7-7-7-|--7-7---7-7-7-7-|x1 
A|2---2---2-2-2-2-|--2-2---2-2-2-2-|5---5---5-5-5-5-|--5-5---5-5-5-5-|
E|0---0---0-0-0-0-|--0-0---0-0-0-0-|----------------|----------------|


Pre-Instrumental (sorry, i don't know exactly that the guitar plays so i play it) :

e|----------------|----------------|----------------|----------------|
B|----------------|----------------|----------------|----------------|
G|----------------|----------------|----------------|----------------|
D|----------------|----------------|----------------|----------------|x2 
A|5-5-5-5-5-5-5-5-|5-5-5-5-5-5-5-5-|5-5-5-5-5-5-5-5-|5-5-5-5-5-5-5-5-|
E|3-3-3-3-3-3-3-3-|3-3-3-3-3-3-3-3-|3-3-3-3-3-3-3-3-|3-3-3-3-3-3-3-3-|
  . . . . . . . .   . . . . . . . . . . . . . . . .  . . . . . . . . 

Intrumental (Distorsion) :

e|----------------|----------------|----------------|----------------|
B|----------------|----------------|----------------|----------------|
G|----------------|----------------|----------------|----------------|
D|5---5---5-5-5-5-|--5-5---5-5-5-5-|4---4---4-4-4-4-|--4-4---4-4-4-4-|x1 
A|5---5---5-5-5-5-|--5-5---5-5-5-5-|4---4---4-4-4-4-|--4-4---4-4-4-4-|
E|3---3---3-3-3-3-|--3-3---3-3-3-3-|2---2---2-2-2-2-|--2-2---2-2-2-2-|

e|----------------|----------------|----------------|----------------|
B|----------------|----------------|----------------|----------------|
G|----------------|----------------|7---7---7-7-7-7-|--7-7---7-7-7-7-|
D|2---2---2-2-2-2-|--2-2---2-2-2-2-|7---7---7-7-7-7-|--7-7---7-7-7-7-|x1 
A|2---2---2-2-2-2-|--2-2---2-2-2-2-|5---5---5-5-5-5-|--5-5---5-5-5-5-|
E|0---0---0-0-0-0-|--0-0---0-0-0-0-|----------------|----------------|

Refrain (Distorsion) (x3) :

e|----------------|----------------|----------------|----------------|
B|----------------|----------------|----------------|----------------|
G|----------------|----------------|----------------|----------------|
D|5---5---5-5-5-5-|--5-5---5-5-5-5-|4---4---4-4-4-4-|--4-4---4-4-4-4-|x1 
A|5---5---5-5-5-5-|--5-5---5-5-5-5-|4---4---4-4-4-4-|--4-4---4-4-4-4-|
E|3---3---3-3-3-3-|--3-3---3-3-3-3-|2---2---2-2-2-2-|--2-2---2-2-2-2-|

e|----------------|----------------|----------------|----------------|
B|----------------|----------------|----------------|----------------|
G|----------------|----------------|7---7---7-7-7-7-|--7-7---7-7-7-7-|
D|2---2---2-2-2-2-|--2-2---2-2-2-2-|7---7---7-7-7-7-|--7-7---7-7-7-7-|x1 
A|2---2---2-2-2-2-|--2-2---2-2-2-2-|5---5---5-5-5-5-|--5-5---5-5-5-5-|
E|0---0---0-0-0-0-|--0-0---0-0-0-0-|----------------|----------------|
            
Hard to play? Try these video lessons and learn fast. | Correct




comments powered by Disqus
↑ Back to top | Tablatures and chords are parodies/interpretations of the original songs. You may use it for private study, scholarship, research or language learning purposes only