» » »

Dari, Cercasi Aaamore Bass tabs (ver.1)

Artists:  A B C D E F G H I J K L M N O P Q R S T U V W X Y Z # 

Cercasi Aaamore Bass tabs (ver.1)

Dari Tabs
Rating:
0/5 (0 votes)
Cercasi Aaamore lessons Tabs too difficult? Try these video lessons and learn fast
                +++++++++++++++++++++++++
| Dari- Cercasi Aaamore |
+++++++++++++++++++++++++


"E non ti sopporto piú..."


Tuning: Standard EADG


Intro
1.
G|------------------------------------------------|
D|------------------------------------------------|
A|----------------------2~--------4~----2~--------|
E|------------------------------------------------|

"Non sará piú come quando ti baciavo bella..."
2.
G|------------------------------------------------|
D|-/7~--------------------------------------------|
A|------------4~--------2~--------4~----6~--------|
E|------------------------------------------------|

"Non sará piú come quando ti volevo bella..."
3.
G|---------------------------------------------------------------------------------|
D|------2~-22-----2~-22------------------------------------------------------------|
A|-0~-00-----0~-00------4~-44-----4~-44------2~-22-----2~-22-----0~----------------|
E|---------------------------4~-44-----4~-44------2~-22-----2~-22------------------|

Chorus
"Cercasi aaamore, cercasi aaamore..."
4.
G|-------------------------------------------------------------------------|
D|-------------------------------------------------------------------------|
A|----------00000000-44466677-22222222-00000000-------------------22222222-|--x2
E|-00000000-------------------------------------00000000-22244455----------|

Outro
5.
G|-------------------|
D|-------------------|
A|-2~----------------|
E|-------------------|

Verse
"Non sará piú come quando ti guardavo bella..."
6.
G|------------------------------------------------------------------------------------|
D|------2~-22-----2~-22---------------------------------------------------------------|
A|-0~-00-----0~-00------4~-44-----4~-44------2~-22-----2~-22-----4~-44-----6~-66------|
E|---------------------------4~-44-----4~-44------2~-22-----2~-22-----5~-55-----7~-77-|

Pre-Chorus
"E non ti sopporto piú..."
7.
G|--------------------------------------|
D|--------------------------------------|
A|-4~-44-----6~-66-------------------7\-|
E|------5~-55-----7~-77-----------------|

Chorus
"Cercasi aaamore, cercasi aaamore..."
8.
G|-------------------------------------------------------------------------|
D|-------------------------------------------------------------------------|
A|----------00000000-44466677-22222222-00000000-------------------22222222-|--x2
E|-00000000-------------------------------------00000000-22244455----------|

Bridge
"Non sará piú come quando ascoltavamo i Blur..."
9.
G|-------------------------------------------------------------------------|
D|-------------------------------------------------------------------------|
A|----------00000000-44466677-22222222-00000000-------------------2222222x-|
E|-00000000-------------------------------------00000000-22244455----------|

10.
G|-------------------------------------------------------------------------|
D|-------------------------------------------------------------------------|
A|----------00000000-44466677-22222222-00000000-------------------22222222-|
E|-00000000-------------------------------------00000000-22244455----------|

Chorus
"Cercasi aaamore, cercasi aaamore..."
11.
G|-------------------------------------------------------------------------|
D|-------------------------------------------------------------------------|
A|----------00000000-44466677-22222222-00000000-------------------22222222-|--x2
E|-00000000-------------------------------------00000000-22244455----------|


Please rate thank you!!

Lyrics:


Non sarà più come quando ti baciavo, bella
non sarà più come quando ti ascoltavo, bella
non sarà più come quando mi batteva il cuore, se parlavo con te.
Non sarà più come quanto ti volevo, bella
non sarà più come quando ti sognavo, bella
non sarà più come quando ascoltavamo i Blur, credevi lui fosse me.

Cercasi aaamore, cercasi aaamore
eri benzina ed io il motore, 33 litri un pieno d’amore.
La la la la l’amore non c’è più la l’amore
e cercasi aaamore, la peggio al cuore, riserva d’amore.

Non sarà più come quando ti guardavo, bella
non sarà più come quando sorridevi, bella
non sarà più c’eravamo solo noi, e tutto il resto poi
Non sarà più come quando ti aspettavo, bella
non sarà più come quando avevi un senso, bella
non sarà più come quando adesso abbiamo rotto
e non ti sopporto più più più e non ti sopporto più.

Non sarà più come quando ascoltavamo i Blur,
non sarà più come quando c’eravamo solo noi e tutto il resto poi
cercasi un amore che non sarà più.

+++++++++++++++++++++++++++++++++
| RaiLeff                       |
+++++++++++++++++++++++++++++++++
            
Submit corrections

comments powered by Disqus
↑ Back to top | Dari Bass for Cercasi Aaamore. Lyrics for acoustic guitar and electric guitar. Tablatures and chords are parodies/interpretations of the original songs. You may use it for private study, scholarship, research or language learning purposes only