» » »

Dare, Abandon Tabs (ver.1)

Artists:  A B C D E F G H I J K L M N O P Q R S T U V W X Y Z # 

Abandon Tabs (ver.1)

Dare Tabs
 Rating:
4.2/5 (5 votes)
Abandon lessons Tabs too difficult? Try these video lessons and learn fast
1
                



INTRO
 e|---------------------------------------------------------------------------|
 B|---------------------------------------------------------------------------|
 G|----------------------------------------------------------8-8--------------|
 D|----------------------------------------------------------8-8--------------|
 A|-0-2-4------------2-----2-4--2----2-4--2----2-4--7-6---7--6-6--------------|
 E|--------------2-4---4---0-2--4----0-2--4----0-2--5-4---5----6--------------|


VERSE
 e|---------------------------------------------------------------------------|
 B|-----------------------------.-.-------------------------------------------|
 G|-----4-6-----4-6---9-8-6---9-4-4-6---6-8-9--11--------8--------------------|
 D|--6--4-6--6--4-6---9-8-6---9-4-4-6---6-8-9--11------8----------------------|
 A|--6--2-4--6--2-4---7-6-4---7-2-2-4---4-6-7--9---6-6------------------------|
 E|--4-------4----------------------------------------------------------------|
 
CHORUS
 e|---------------------------------------------------------------------------|
 B|----------.-.-------------------------.-.--------------.-------------------|
 G|--9-4-2-6-4-4--9-4-9-4--------4-4-2-6-4-4-----9-4------6-------------------|
 D|--9-4-2-6-4-4--9-4-7-2-22222--2-4-2-6-4-4-----9-4-6-7--6-------------------|
 A|--7-2-0-4-2-2--7-2-7-2--------2-2-0-4-2-2-----7-2-6-7--4--------2----------|
 E|------------------------------0--------------------4-5-------2-4---4-------|


VERSE
 e|---------------------------------------------------------------------------|
 B|-----------------------------.-.-------------------------------------------|
 G|-----4-6-----4-6---9-8-6---9-4-4-6---6-8-9--11--------8--------------------|
 D|--6--4-6--6--4-6---9-8-6---9-4-4-6---6-8-9--11------8----------------------|
 A|--6--2-4--6--2-4---7-6-4---7-2-2-4---4-6-7--9---6-6------------------------|
 E|--4-------4----------------------------------------------------------------|
 
CHORUS
 e|------------------------------------------------------------------------------------------|
 B|----------.-.-------------------------.-.------------------------.------------------------|
 G|--9-4-2-6-4-4--9-4-9-4--------4-4-2-6-4-4-----9-4-------9-4------6------------------------|
 D|--9-4-2-6-4-4--9-4-7-2-22222--2-4-2-6-4-4-----9-4-6-7---9-4-6-7--6------------------------|
 A|--7-2-0-4-2-2--7-2-7-2--------2-2-0-4-2-2-----7-2-6-7---7-2-6-7--4------2-4------2--------|
 E|------------------------------0--------------------4-5-------4-5-----2-4------2-4---------|


UNDER SOLO
 e|---------------------------------------------------------------------------|
 B|------------------------------.-.------------------------------------------|
 G|-------------------9-8-6--9-8-4-4--6-8-9--8--------------------------------|
 D|--6--2-4--6--2-4---9-8-6--9-8-4-4--6-8-9--8-6------------------------------|
 A|--6--2-4--6--2-4---7-6-4--7-6-2-2--4-6-7--6-6------------------------------|
 E|--4--0-2--4--0-2----------------------------4------------------------------|

 
CHORUS
 e|---------------------------------------------------------------------------|
 B|----------.-.-------------------------.-.----------------------------------|
 G|--9-4-2-6-4-4--9-4-9-4--------4-4-2-6-4-4-----9-4--------------------------|
 D|--9-4-2-6-4-4--9-4-7-2-22222--2-4-2-6-4-4-----9-4-6-7----------------------|
 A|--7-2-0-4-2-2--7-2-7-2--------2-2-0-4-2-2-----7-2-6-7----------------------|
 E|------------------------------0-------------------4-5----------------------|
            
Submit corrections

comments powered by Disqus
↑ Back to top | Dare Tabs for Abandon. Lyrics for acoustic guitar and electric guitar. 1 Tablatures and chords are parodies/interpretations of the original songs. You may use it for private study, scholarship, research or language learning purposes only