» » »

Daphne Loves Derby, Simple Starving To Be Safe Tabs (ver.3)

Artists:  A B C D E F G H I J K L M N O P Q R S T U V W X Y Z # 

Simple Starving To Be Safe Tabs (ver.3)

Daphne Loves Derby Tabs
 Rating:
4/5 (4 votes)
Simple Starving To Be Safe lessons Tabs too difficult? Try these video lessons and learn fast
                
Capo on the 4th fret

This is the first tab I've ever made. Sorry if it's confusing.


INTRO:
E ----0-------3------0-----0--0---|
B ---1-------1--0-----0-----0--0--|
G --2-----0h2-----0----0-----0--0-|
D -3-----3------------------------|
A ------------------3-----3-------|
e --------------------------------|

E ----0-------3------------------------------|
B ---1-------1--0------------5-----------5---|
G --2-----0h2-----0-------4---4---------4-4--|
D -3-----3---------------5-----5-------5---5-|
A ------------------3-3h5---------3-3h5------|
e -------------------------------------------|


VERSE:
E ----------------3----3-----------------------------|
B ---5-T--5---T---1-T--1---T-----T--5---T--------5---|
G ---4-A--4---A-----A------A---4-A--4---A-------4-4--|
D -----P------P-3---P-3----P---5-P------P------5---5-|
A -3-----3-------------------3-----3------3-3h5------|
e ---------------------------------------------------| (x2)

V1: Lately I've been thinking so strangely about the clouds
    And how they seem to slowly fade away, yeah
V2: Lately I've been hoping you could stay with me
    And I could hold you close 'til the end of time, yeah

E ----------------3----3-----------------------------|
B ---5-T--5---T---1-T--1---T-----T--5---T------------|
G ---4-A--4---A-----A------A---4-A--4---A-------454--|
D -----P------P-3---P-3----P---5-P------P------5---5-|
A -3-----3-------------------3-----3------3-3h5------|
e ---------------------------------------------------|

V1: Maybe someday we will find a way to disappear
V2: Maybe someday we will grab some change and runaway

E ----------------3----3-----------------------------|
B ---5-T--5---T---1-T--1---T-----T--5---T------------|
G ---4-A--4---A-----A------A---4-A--4---A-------454--|
D -----P------P-3---P-3----P---5-P------P------5---5-|
A -3-----3-------------------3-----3------3-3h5------|
e ---------------------------------------------------|

V1: Just me and you on silver lining dreams
V2: But for now I'll learn to say goodbye


CHORUS:
E ---0-----0-----0-----0-------0-----0----0----0---|
B ---0-T---0-T---0-T---0-T-----0-T---0-T--0-T--0-T-|
G -----A-----A-----A-----A-------A-----A----A----A-|
D -----P-----P-----P-----P-------P-2---P----P-2--p-|
A -------2-----------2-------0-----------0---------|
e -0-----------0-----------------------------------|

    Oh, how could I survive

E ---2-----2-----2-----2-----3-----3-------------------|
B ---1-T---1-T---1-T---1-T---3-T---3-T-----------------|
G -2---A-2---A-2---A-2---A-----A-----A-----------------|
D -----P-----P-----P-----P-----P-----P---3-2-0---------|
A -------------------------------2-------------3-2-0---|
e -------------------------3-----------3-------------3-|

    Without your love and the hope you bring?

E ---0-----0-----0-----0-------0-----0----0----0---|
B ---0-T---0-T---0-T---0-T-----0-T---0-T--0-T--0-T-|
G -----A-----A-----A-----A-------A-----A----A----A-|
D -----P-----P-----P-----P-------P-2---P----P-2--p-|
A -------2-----------2-------0-----------0---------|
e -0-----------0-----------------------------------|

C1: Oh, even when the sky is falling down
C2: Oh, even when the world is breaking down
C3: Oh, even when the world just falls apart

E ---2-----2-----2-----2-----3-----3-------------------|
B ---1-T---1-T---1-T---1-T---3-T---3-T-----------------|
G -2---A-2---A-2---A-2---A-----A-----A-----------------|
D -----P-----P-----P-----P-----P-----P---3-2-0---------|
A -------------------------------2-------------3-2-0---|
e -------------------------3-----------3-------------3-|

    I know I have you, and that's all I need

BRIDGE:
E-----3-------|
B--5--1-----5-|
G--4--2--4--4-|
D--5--3--5----|
A--3-----3--3-|
e-------------| (x2)

E ----------------3----3-----------------------------|
B ---5-T--5---T---1-T--1---T-----T--5---T--------5---|
G ---4-A--4---A-----A------A---4-A--4---A-------4-4--|
D -----P------P-3---P-3----P---5-P------P------5---5-|
A -3-----3-------------------3-----3------3-3h5------|
e ---------------------------------------------------| (x2)
    Oh, she's my everything
    Oh, she's all I need


INTRO
VERSE: 1
CHORUS: 1
VERSE: 2
CHORUS: 2
BRIDGE
CHORUS: 3
            
Submit corrections

comments powered by Disqus
↑ Back to top | Daphne Loves Derby Tabs for Simple Starving To Be Safe. Lyrics for acoustic guitar and electric guitar. Tablatures and chords are parodies/interpretations of the original songs. You may use it for private study, scholarship, research or language learning purposes only