» » »

Daphne Loves Derby, Simple Starving To Be Safe Tabs (ver.1)

Artists:  A B C D E F G H I J K L M N O P Q R S T U V W X Y Z # 

Simple Starving To Be Safe Tabs (ver.1)

Daphne Loves Derby Tabs
 Rating:
4/5 (4 votes)
Simple Starving To Be Safe lessons Tabs too difficult? Try these video lessons and learn fast
1
                Simple, Starving To Be Safe by Daphne Loves Derby


Tuning: E A D G B e, capo on 4th fret (fingerings relative to capo)

Intro, 1x
e|-------0----------3--------0--------0------0-------|
B|-----1----------0---0--------0--------0------0-----|
G|---2--------0h1-------0--------0--------0------0---|
D|-3--------3----------------------------------------|
A|-------------------------3--------3----------------|
E|---------------------------------------------------|


e|-------0----------3-----------------0----------------0---------|
B|-----1----------0---0------------0----0------------0---0-------|
G|---2--------0h1-------0--------0--------0--------0-------0-----|
D|-3--------3----------------0h2---------------0h2-----------2---|
A|-------------------------3-----------------3-------------------|
E|---------------------------------------------------------------|


Verse, 4x (parentheses indicate ornamental picking)
"Lately, I've been thinking so..."
e|---0-x---0--x----3-x---3-x(0)---0-x---0-x(0)----------0---------|
B|---1-x---1--x----1-x---1-x(0)---1-x---1-x(0)--------0---0-------|
G|---2-x---2--x----2-x---2-x------0-x---0-x(0)------0-------0-----|
D|-3---x-3----x-3----x-3---x--------x-----x-----0h2-----------2---|
A|-----------------------------3----x-3---x---3-------------------|
E|----------------------------------------------------------------|


Chorus, 2x
"Oooh, how could I..."
e|---0-x----0-x----0-x----0-x---0-x----0-x---------------------|
B|---0-x----0-x----0-x----0-x---1-x----1-x---0h1-----1-----1---|
G|-----x------x------x------x-----x------x-------0-----0-------|
D|-----x------x------x------x-----x-2----x---------2-----2-----|
A|-----x-2----x------x-2----x-0---x------x-0-------------------|
E|-0---x------x-0----x------x-----x------x---------------------|


e|----0-x----2-x----0h2-----2-------2----3-x----3-x-------------------|
B|----1-x----1-x--------1-----0h1--------3-x----3-x-------------------|
G|----0-x----2-x----------2-------2--------x------x-------------------|
D|-0----x-0----x-0-------------------------x-0----x---3-2-0-----------|
A|------x------x---------------------------x------x---------3-2-0-----|
E|------x------x-----------------------3---x------x-3-------------3---|

Verse, 2x (Instrumental break)


Verse, 4x
"Lately, I've been hoping..."

Chorus, 2x
"Oooh, how could I..."

Chords, 2x
e|-0---3---0---0---|
B|-1---0---0---1---|
G|-2---1---0---0---|
D|-3---3---2---2---|
A|---------3---3---|
E|-----------------|

Verse, 4x
"Oooh, she is my everything..."

Chorus, 2x
"Oooh, how could I..."

Outro, 1x
e|-------0----------3--------0--------0------0-------|
B|-----1----------0---0--------0--------0------0-----|
G|---2--------0h1-------0--------0--------0------0---|
D|-3--------3----------------------------------------|
A|-------------------------3--------3----------------|
E|---------------------------------------------------|


e|-------0----------3------0-----|
B|-----1----------0---0----0-----|
G|---2--------0h1-------0--0-----|
D|-3--------3--------------2-----|
A|-------------------------3-----|
E|-------------------------------|
            
Submit corrections

comments powered by Disqus
↑ Back to top | Daphne Loves Derby Tabs for Simple Starving To Be Safe. Lyrics for acoustic guitar and electric guitar. 1 Tablatures and chords are parodies/interpretations of the original songs. You may use it for private study, scholarship, research or language learning purposes only