» » »

Pollen And Salt Tabs (ver.1)

Artists:  A B C D E F G H I J K L M N O P Q R S T U V W X Y Z # 

Pollen And Salt Tabs (ver.1)

Daphne Loves Derby
Rating:
4.7/5 (27 votes)

Hard to play? Try these video lessons and learn fast.
                Pollen and Salt by Daphne Loves Derby


This tab is a bit long because the song is made up of the same
progressions but with slight variations on it throughout the tune.
I hope my breakdown of the variations is helpful.  Good luck.

Tuning: (down half step) Eb Ab Db Gb Bb eb

Intro, 1x
e|-------------------------------------------------|
B|----0-----------0-----------3-----------3--------|
G|------0---0-------0---0-------2---2-------2---2--|
D|--------0-----------0-----------0-----------0----|
A|-------------------------------------------------|
E|-3-----------3-----------2-----------2-----------|


e|----------------0--------------------------------|
B|----1-----------------------1-----------0--------|
G|------0---0-------0---0-------0---0-------0---0--|
D|--------2-----------2-----------2-----------0----|
A|-0-----------0-----------0-----------2-----------|
E|-------------------------------------------------|


e|----------------0--------------------------------|
B|----3-----------------------0-----------0--------|
G|------0---0-------0---0-------0---0-------0---0--|
D|--------2-----------2-----------5-----------5----|
A|-3-----------3-----------6-----------6-----------|
E|-------------------------------------------------|


e|----------------0-----------------------0--------|
B|----0-----------------------0--------------------|
G|------7---7-------7---7-------0---0-------0---0--|
D|--------5-----------5-----------2-----------2----|
A|-7-----------7-----------4-----------4-----------|
E|-------------------------------------------------|


e|-------------------------------------------------|
B|----3-----------3-----------3-----------3--------|
G|------0---0-------0---0-------0---0-------0---0--|
D|--------2-----------2-----------2-----------2----|
A|-3-----------3-----------3-----------3-----------|
E|-------------------------------------------------|



Verse, 2x (repeat with 2 different endings)
e|-------------------------------------------------|
B|----0-----------0-----------3-----------3--------|
G|------0---0-------0---0-------2---2-------2---2--|
D|--------0-----------0-----------0-----------0----|
A|-------------------------------------------------|
E|-3-----------3-----------2-----------2-----------|


e|----------------0--------------------------------|
B|----1-----------------------1-----------0--------|
G|------0---0-------0---0-------0---0-------0---0--|
D|--------2-----------2-----------2-----------0----|
A|-0-----------0-----------0-----------2-----------|
E|-------------------------------------------------|


e|-------------------------------------------------|
B|----3-----------3-----------0-----------0--------|
G|------0---0-------0---0-------0---0-------0---0--|
D|--------2-----------2-----------5-----------5----|
A|-3-----------3-----------6-----------6-----------|
E|-------------------------------------------------|

1st ending "...the wind."
e|-------------------------------------------------\\
B|----0-----------0-----------0-----------0--------*||
G|------0---0-------0---0-------0---0-------0---0-- ||
D|--------0-----------0-----------0-----------0---- ||
A|-------------------------------------------------*||
E|-3-----------3-----------3-----------3-----------//

2nd ending "...to fill, ooooooh."
e|----------------0-----------------------0--------|
B|----0-----------------------0--------------------|
G|------7---7-------7---7-------0---0-------0---0--|
D|--------5-----------5-----------2-----------2----|
A|-7-----------7-----------4-----------4-----------|
E|-------------------------------------------------|


e|----------------0--------------------------------|
B|----0-----------------------0-----------0--------|
G|------0---0-------0---0-------0---0-------0---0--|
D|--------2-----------2-----------2-----------2----|
A|-3-----------3-----------3-----------3-----------|
E|-------------------------------------------------|


"I have been holding my breath...For too many nights...", 2x
e|----------------------------------------0----------------------0--------|
B|----1-----------0-----------3----------------------3--------------------|
G|------0---0-------0---0-------0---0-------0---0------0---0-------0---0--|
D|--------2-----------0-----------2-----------2----------2-----------2----|
A|-0-----------2-----------3-----------3----------3-----------3-----------|
E|------------------------------------------------------------------------|


"And somewhere on coastlines unknown to me..."
e|-------------------------------------------------|
B|----1-----------0-----------3-----------0--------|
G|------0---0-------0---0-------0---0-------0---0--|
D|--------2-----------0-----------2-----------5----|
A|-0-----------2-----------3-----------6-----------|
E|-------------------------------------------------|


e|----------------0-----------------------0--------|
B|----0-----------------------0--------------------|
G|------7---7-------7---7-------0---0-------0---0--|
D|--------5-----------5-----------2-----------2----|
A|-7-----------7-----------4-----------4-----------|
E|-------------------------------------------------|


e|-------------------------------------------------|
B|----3-----------3-----------3-----------3--------|
G|------0---0-------0---0-------0---0-------0---0--|
D|--------2-----------2-----------2-----------2----|
A|-3-----------3-----------3-----------3-----------|
E|-------------------------------------------------|


"Yea you're painting dafodils..."
e|----------------0--------------------------------|
B|----1-----------------------1-----------0--------|
G|------0---0-------0---0-------0---0-------0---0--|
D|--------2-----------2-----------2-----------0----|
A|-0-----------0-----------0-----------2-----------|
E|-------------------------------------------------|


e|----------------0-----------|
B|----3-----------------------|
G|------0---0-------0---0-----|
D|--------2-----------2-------|
A|-3-----------3-----------6--|
E|----------------------------|


Intro, 1x


Verse, 2x (repeat with 2 different endings)


"I have been holding my breath...For too many nights...", 2x


"And somewhere on coastlines unknown to me..."


"Yea you're painting dafodils..."
e|----------------0--------------------------------|
B|----1-----------------------1-----------0--------|
G|------0---0-------0---0-------0---0-------0---0--|
D|--------2-----------2-----------2-----------0----|
A|-0-----------0-----------0-----------2-----------|
E|-------------------------------------------------|


e|----------------0-----------------------0--------|
B|----3-----------------------0--------------------|
G|------0---0-------0---0-------0---0-------0---0--|
D|--------2-----------2-----------5-----------5----|
A|-3-----------3-----------6-----------6-----------|
E|-------------------------------------------------|


e|----------------0-----------------------0--------|
B|----0-----------------------0--------------------|
G|------0---0-------0---0-------0---0-------0---0--|
D|--------5-----------5-----------5-----------5----|
A|-7-----------7-----------7-----------7-----------|
E|-------------------------------------------------|


e|----------------0-----------------------0--------|
B|----0-----------------------0--------------------|
G|------0---0-------0---0-------0---0-------0---0--|
D|--------2-----------2-----------2-----------2----|
A|-4-----------4-----------4-----------4-----------|
E|-------------------------------------------------|


e|----------------0--------------------------------|
B|----0-----------------------0-----------0--------|
G|------0---0-------0---0-------0---0-------0---0--|
D|--------2-----------2-----------2-----------2----|
A|-3-----------3-----------3-----------3-----------|
E|-------------------------------------------------|


"I would give away..."
e|----------------0--------------------------------|
B|----1-----------------------1-----------0--------|
G|------0---0-------0---0-------0---0-------0---0--|
D|--------2-----------2-----------2-----------0----|
A|-0-----------0-----------0-----------2-----------|
E|-------------------------------------------------|


e|----------------0--------------------------------|
B|----0-----------------------0-----------0--------|
G|------0---0-------0---0-------0---0-------0---0--|
D|--------2-----------2-----------2-----------2----|
A|-3-----------3-----------3-----------3-----------|
E|-------------------------------------------------|


e|----------------0--------------------------------|
B|----1-----------------------7-----------7--------|
G|------0---0-------0---0-------5---5-------5---5--|
D|--------2-----------2-----------7-----------7----|
A|-0-----------0-----------5-----------5-----------|
E|-------------------------------------------------|


"...you again...", 2x
e|----8-----------8-----------8-----------8--------|
B|------8---8-------8---8-------8---8-------8---8--|
G|--------0-----------0-----------0-----------0----|
D|-------------------------------------------------|
A|-8-----------8-----------7-----------7-----------|
E|-------------------------------------------------|


e|-------------------------------------------------|
B|----7-----------7-----------7-----------7--------|
G|------5---5-------5---5-------5---5-------5---5--|
D|--------7-----------7-----------7-----------7----|
A|-5-----------5-----------5-----------5-----------|
E|-------------------------------------------------|


"I have been holding my breath...for too many nights...", 2x


"And somewhere on coastlines unknown to me..."


"Yea you're painting dafodils..."


Intro, 1x


Outro Chords
"Last night I dreamt you were with me..."
e|-------------|
B|-0~--3~--1~--|
G|-0~--2~--0~--|
D|-0~--0~--2~--|
A|---------0~--|
E|-3~--2~------|
            
Hard to play? Try these video lessons and learn fast. | Correct




comments powered by Disqus
↑ Back to top | Tablatures and chords are parodies/interpretations of the original songs. You may use it for private study, scholarship, research or language learning purposes only