» » »

Daphne Loves Derby, Patterns And How They Change The Visible World Chords (ver.1)

Artists:  A B C D E F G H I J K L M N O P Q R S T U V W X Y Z # 

Patterns And How They Change The Visible World Chords (ver.1)

Daphne Loves Derby Tabs
Rating:
5/5 (1 vote)
Patterns And How They Change The Visible World lessons Tabs too difficult? Try these video lessons and learn fast
                

Standard Tuning

    G  Cadd9  C   Am7
e|--3----3----0----0--|
B|--3----3----1----1--|
G|--0----0----0----0--|
D|--0----2----2----2--|
A|--2----3----3----0--|
E|--3----x----x----x--|

/ - slide up
\ - slide down
h - hammer on


Intro:
Cadd9           G             Am7
e|------3-------|------5-------|--10/12\10-3--|--5-3-5/7-----|
B|--0h1---------|--0h1---------|--10/12\10----|--------------|
G|--------------|--------------|--------------|--------------|
D|--------------|--------------|--------------|--------------|
A|--------------|--------------|--------------|--------------|
E|--------------|--------------|--------------|--------------|

Cadd9           G             Am7
e|------3-------|--------------|--------------|--------------|
B|--0h1---------|---------0-3--|--3/5---------|--------------|
G|--------------|--------------|--------------|--------------|
D|--------------|--------------|--------------|--------------|
A|--------------|--------------|--------------|--------------|
E|--------------|--------------|--------------|--------------|


     Cadd9                        G                 Am7
You're either blessed when you're dead or when we're young
       Cadd9                     G
And from you I learned that in between those years
        Am7
there is nothing left to see
 Cadd9           G             Am7
So hide all your blessings, and keep them somewhere safe
            Cadd9    G  Am7
So they don't break     apart


G        Cadd9            C                      Am7
Is there a reason why the rain only falls on your head
 Cadd9              Am7 
It just doesn't seem right, at all


Cadd9  G  Am7 x2


  Cadd9                  G               Am7
You sold your soul for a soul that's life full
  Cadd9                       G                  Am7
The years go by but you don't have a single sweet memory
     Cadd9       G            Am7
And if you don't deserve to be happy
        Cadd9  G           Am7
Why would I,      Why would I


Is there a reason why the rain only falls on your head
It just doesn't seem right


Is there a reason why the rain only falls on your head
It just doesn't seem right, at all
            

comments powered by Disqus
↑ Back to top | Daphne Loves Derby Chords for Patterns And How They Change The Visible World. Lyrics for acoustic guitar and electric guitar. Tablatures and chords are parodies/interpretations of the original songs. You may use it for private study, scholarship, research or language learning purposes only