» » »

Patterns And How They Change The Visible World Tabs (ver.1)

Artists:  A B C D E F G H I J K L M N O P Q R S T U V W X Y Z # 

Patterns And How They Change The Visible World Tabs (ver.1)

Daphne Loves Derby
Rating:
4/5 (4 votes)

Hard to play? Try these video lessons and learn fast.
                ----------------------------------------------------------------------------
Patterns And How They Change The Visible World- Daphne Loves Derby
----------------------------------------------------------------------------


"Patterns And How They Change The Visible World" is a BRAND NEW DLD song from their new "Acoustic EP"
I tried my best to tab out the 2nd guitar part but I just can't figure it out.

FIGURE OUT STRUM PATTERN AND PALM MUTES

Tuning:standard

*HOLD NOTE

INTRO
e|--3---3---------0|
B|--3---3-----1---0|
G|------2---------0|
D|--2---------2---0|
A|--3---2---------0|
E|----------------0|

e|--3---3---------|
B|--3---3-----1*--|
G|------2---------|
D|--2---------2*--|
A|--3---2---------|
E|----------------|


Verse
e|--3---3---------0|
B|--3---3-----1---0|
G|------2---------0|
D|--2---------2---0|
A|--3---2---------0|
E|----------------0|x3

e|--3---3---------|
B|--3---3-----1*--|
G|------2---------|
D|--2---------2*--|
A|--3---2---------|
E|----------------|

You're either blessed when you're dead or when we're young,
And from you I learned in between those years there is nothing left to see.
So hide all your blessings, and keep 'em somewhere safe,
So they don't break apart.


Chorus
e|--3*----3*----------------|
B|--3*----3*----------2*----|
G|--------------------------|
D|--------2*----2*----2*----|
A|--2*----3*----3*----------|
E|--3*----------------------|

e|--3*--------0|
B|--3*---2*---0|
G|------------0|
D|--2*---2*---0|
A|--3*--------0|
E|------------0|

Is there a reason why the rain only falls on your head?
It just doesn't seem right at all.


Repeat Intro

Repeat Verse

You sold your soul for a soul that's life full.
The years go by but you don't have a single sweet memory, 
And if you don't deserve to be happy,
Why would I, Why would I?


End 

e|--3*----3*--------------|
B|--3*----3*----------2*--|
G|------------------------|
D|--------2*----2*----2*--|
A|--2*----3*----3*--------|
E|--3*--------------------|

e|--3*--------0|
B|--3*---2*---0|
G|------------0|
D|--2*---2*---0|
A|--3*--------0|
E|------------0|

e|--3*----3*--------------|
B|--3*----3*----------2*--|
G|------------------------|
D|--------2*----2*----2*--|
A|--2*----3*----3*--------|
E|--3*--------------------|

e|--3*--------|
B|--3*---2*---|
G|------------|
D|--2*---2*---|
A|--3*--------|
E|------------|

Is there a reason why the rain only falls on your head?
It just doesn't seem right.

Is there a reason why the rain only falls on your head?
It just doesn't seem right, at all.

ENJOY!!!
            
Hard to play? Try these video lessons and learn fast. | Correct




comments powered by Disqus
↑ Back to top | Tablatures and chords are parodies/interpretations of the original songs. You may use it for private study, scholarship, research or language learning purposes only