>
 >
Midnight Highway 2

Midnight Highway 2 Guitar Tabs

Daphne Loves Derby - Midnight Highway 2 chords, tabs, tablatures, lyrics

Guitar lessons | Add/correct | Request | Top 50 tabs Artists:  A B C D E F G H I J K L M N O P Q R S T U V W X Y Z 0-9

Midnight Highway 2 Guitar Tabs – Daphne Loves Derby

CD, Sheet music, Poster

Do you like Midnight Highway 2? Share with your friends now
ChordsTabsTabs v2Tabs v3Ukulele
OK! soooo, this is a good song, and it's pretty easy but confusing, there are a few
versions so here's mine, its...95% accurate?? its pretty simple, so if u pick anything

so the first part goes like...(part A)

--|-0-0-0-0-00-|-0-0-0-0-00-|-0-0-0-0-00-|-0-0-0-0-00-|-------/--|--
--|-0-0-0-0-00-|-0-0-0-0-00-|-0-0-0-0-00-|-0-0-0-0-00-|--O---/---|--
--|-4-4-4-4-44-|-0-6-6-6-66-|-8-8-8-8-88-|-9-9-9-9-99-|-----/----|--
--|-x-x-x-x-xx-|-x-x-x-x-xx-|-x-x-x-x-xx-|-x-x-x-x-xx-|----/-----|--
--|-2-2-2-2-22-|-4-4-4-4-44-|-6-6-6-6-66-|-7-7-7-7-77-|---/---O--|--
--|-0-0-0-0-00-|-0-0-0-0-00-|-0-0-0-0-00-|-0-0-0-0-00-|--/-------|--

and then it goes tooo...(part B)

-|-0-0-0-0-0-0-0-0-|- x7 and end on |-0-|
-|-0-0-0-0-0-0-0-0-|-               |-0-|
-|-9-9-9-8-8-4-4-4-|-               |-9-|
-|-x-x-x-x-x-x-x-x-|-               |-x-|
-|-7-7-7-6-6-2-2-2-|-               |-7-|
-|-0-0-0-0-0-0-0-0-|-               |-0-|

then it continues to where the percussion section comes in, it's the same as
Part A, just different strumming, 
--|-0-0-0-0-00-|-0-0-0-0-00-|-0-0-0-0-00-|-0-0-0-0-00-|--
--|-0-0-0-0-00-|-0-0-0-0-00-|-0-0-0-0-00-|-0-0-0-0-00-|--
--|-4-4-4-4-44-|-0-6-6-6-66-|-8-8-8-8-88-|-9-9-9-9-99-|--
--|-x-x-x-x-xx-|-x-x-x-x-xx-|-x-x-x-x-xx-|-x-x-x-x-xx-|--
--|-2-2-2-2-22-|-4-4-4-4-44-|-6-6-6-6-66-|-7-7-7-7-77-|--
--|-0-0-0-0-00-|-0-0-0-0-00-|-0-0-0-0-00-|-0-0-0-0-00-|--   

and goes 3 times ending on 

|-0-|
|-0-|
|-4-|
|-4-|
|-2-|
|-0-| which we'll call (part A and a half)

then the pre-pre-corus...(part D)...one of the hardest parts...

|-0-|
|-0-|
|-4-|
|-4-|
|-2-|
|-0-| just play that continuously (however u spell it) but listen to the song to
catch the strumming pattern then u play something before the corus which is just
part B

nowwwwwww the "pre corus" which if u know your alphabeticals will be (part E)

-|-0-0-0-0-0-0-0-0-|- x12 and end on the cord |-0-|
-|-0-0-0-0-0-0-0-0-|-                         |-0-|
-|-9-9-9-8-8-4-4-4-|-                         |-4-|
-|-x-x-x-x-x-x-x-x-|-                         |-4-|
-|-7-7-7-6-6-2-2-2-|-                         |-2-|
-|-0-0-0-0-0-0-0-0-|-                         |-0-|

and NOWWWWWWWWWWWWWW the corus which will obviously be (part H)

-|-0-|-0-|-0-|-0-|-
-|-0-|-0-|-0-|-0-|-
-|-4-|-6-|-8-|-9-|-
-|-4-|-6-|-8-|-9-|-
-|-2-|-4-|-6-|-7-|-
-|-0-|-0-|-0-|-0-|- play that, at the begging of the corus, you strum twice and then
block soo its DUN DUN *BLOCK* DUN DUN *BLOCK* DUN DUN *BLOCK* DUN DUN *block* and then
its just the same notes strummed like part A till the end of the song which is 6 times
and then end on...

-|-0-|-
-|-0-|-
-|-4-|-
-|-4-|-
-|-2-|-
-|-0-|- and YAY U WIN! ^_^

So thats it, Midnight Highway  By: Daphne Loves Derby, so enojy!

Legend:
%=repeat
x=block





Comments


Popular Daphne Loves Derby tabs & chords
Bedroom Bass Tabs
Bedroom 2 Chords
Cue The Sunmoon Test Chords
I Wish You Knew This Song Was About You 1 Chords
Tennis Court Soundtrack 1 Chords
Ergo Propter Tabs
Hammers And Hearts Ukulele
Longest Story Ukulele
Sundays 2 Ukulele
Thats Our Hero Shot Ukulele


Song lyrics



↑ Back to top | Tablatures and chords are parodies/interpretations of the original songs. You may use it for private study, scholarship, research or language learning purposes only
© 2014 AZChords.com Contact us | Privacy policy | DMCA | Add/correct tabs | Request tabs | Top 50 tabs