» » »

Daphne Loves Derby, Midnight Highway Tabs (ver.1)

Artists:  A B C D E F G H I J K L M N O P Q R S T U V W X Y Z # 

Midnight Highway Tabs (ver.1)

Daphne Loves Derby Tabs
 Rating:
4/5 (11 votes)
Midnight Highway lessons Tabs too difficult? Try these video lessons and learn fast
                Daphne Loves Derby - Midnight Highway   


Because I don't know the name of these chords, I put numbers instead.
But it should be 98% correct. If there's any questions,

   (1) (2) (3) (4) (i'm not really sure about #4 i'm still working on it)
e---0---0---0---0|
B---0---0---0---0|
G---4---4---4---9|
D---2---2---2---x|
A---x---x---0---7|
E---0---4---x----|

Verse 1:

1                  2                            3   
 Your bitter goodbye is ringing through this quiet night,

This idle hour just won't pass

1                        2                              3
 I've never missed you this much, never thought I would,

Didn't think you'd feel this far away

1*               2                       3
 Your summer perfume is still blowing through this hallway,

Autumn's amber red shadows dance

1                      2               3   4
 I miss our midnight rides on highway 18, 18 is gone

*You play this with "Your summer perfurme is..." It accompanies the rythym guitar. Hear it closely
e---------------------|
B---------------------|
G----9-9-9-8-8--------|
D--------------9------|
A----------------7-7--|
E---------------------|


Chords for Verse 2:

   (1) (5) (3)
e---0---0---0--|
B---0---0---0--|
G---4---4---4--|
D---2---2---2--|
A---x---x---0--|
E---0---2---x--|

      1              5                   3
And so go past the lights and all the excuses

1                5            3 
 You could have left sincerely yours

1                      5             3
Don't you think it's obvious that I want to say more?


Chords for Chorus:

   (6) (7) (8) (9) (3)
e---0---0---0---0---0--|
B---0---0---0---0---0--|
G---4---4---4---4---4--|
D---2---2---2---4---2--|
A---4---3---2---1---0--|
E----------------------|

      6                         7
Cause anything too daring to say to you
       
         8                          9
Will be said in this letter, then burned away

         3     4
So you never realize, I'm here



e---------------------|4x
B---------------------|
G----9-9-9-8-8--------|
D--------------9------|
A----------------7-7--|
E---------------------|


e---------------------------| (This is played by the 2nd guitar over the 1st)
B---------------------------|
G----------13---------------|
D---------------------------|
A-------------14--16--11----|
E---------------------------|

Chords for Verse 3:

   (1) (2) (5) (3)
e---0---0---0---0---|
B---0---0---0---0---|
G---4---4---4---4---|
D---2---2---2---2---|
A---x---x---x---0---|
E---0---4---2-------|

       5
I'm thinking of your vague reply

   3 
So I can understand

5                       3  
Why we put this at rest


Why we forget to

5
Say that we were leaving

3
Say that we were sorry

5
The past remains unspoken

          3
As this vacant night is dying

    1                   2       3
But I still miss your summer perfume

                               1           2
This cold air brings such a distance to us

         3
Such a painful distance


Chorus:

   (6) (7) (8) (9) (3) (4)
e---0---0---0---0---0---0-|
B---0---0---0---0---0---0-|
G---4---4---4---4---4---9-|
D---2---2---2---4---2---x-|
A---4---3---2---1---0---7-|
E-------------------------|


     6                                   7    
And I'm still waiting for you to say you hate me now

            8                         9
So I don't have to hold on to this burning heart

                       3
This burning heart is getting old, is getting old

           6                                 7
And While sitting on this cold kitchen floor,


Head down to hide the tears,

        8                      9
I've realized. I've finally realized

              3
that you were neeeeeeeeeeeeeeeeeever,

          4
You were never meant for me
            
Submit corrections

comments powered by Disqus
↑ Back to top | Daphne Loves Derby Tabs for Midnight Highway. Lyrics for acoustic guitar and electric guitar. Tablatures and chords are parodies/interpretations of the original songs. You may use it for private study, scholarship, research or language learning purposes only