» » »

Hopeless Love Tabs (ver.2)

Artists:  A B C D E F G H I J K L M N O P Q R S T U V W X Y Z # 

Hopeless Love Tabs (ver.2)

Daphne Loves Derby
Rating:
4/5 (7 votes)

Hard to play? Try these video lessons and learn fast.
                This is my first tab.
I'm not sure if Daphne Loves Derby plays it this way but I wanted a way to play this 
with a capo that isn't in alternate tuning.
Please comment/rate, this is the only version in standard so far so it's a work in 
constructive criticism is appreciated.
Some of the chords are strange and cumbersome to write so bear with me.


Capo on 2nd
Standard Tuning
All chords relative to capo.

   Esus4 - [0 0 2 4 0 0]
   B7/11 - [0 4 4 4 0 0]
       E - [0 2 2 1 0 0]
   Asus2 - [0 0 2 2 0 0]
      Am - [0 0 2 2 1 0]
      Bb - [6 x 6 6 6 x]

Intro:
Esus4 B7/11 Esus4 B7/11


Verse 1:
Esus4              B7/11
Two hundred miles away from home.
Esus4                                  B7/11              Esus4
Two hundred miles beneath this lake is where my heart belongs.
              B7/11
But you don't care at all
    Esus4                           B7/11
You wouldn't even smile if I were screaming as the
      Esus4           B7/11
Water filled my lungs,
      Esus4   B7/11
Oh my lungs.

Esus4            B7/11
You demand to be chased for your love.
   Esus4                              B7/11               Esus4
My desperate heart is far too weak to run for you this long.
              B7/11
But you don't care at all.
        Esus4               B7/11
There's nothing I can do to draw you close to me.


Pre-Chorus:
E        Asus2            Bb             A
Can you take this silence like a pill so I can breathe again?
E         Asus2          Bb         A
I've been trying to ignore the best part of you.
B7/11                     Esus4                 Asus2
But I'm still hoping that I'll be with you somehow,
    Asus2
Somehow.


Chorus:
E         Esus4
Please be home tonight.
B7/11                               Asus2      Esus4
I'll die if I don't get a chance to make this just right.
E         Esus4
I'm sorry but I can't
B7/11
Forget about the way I feel,
Asus2             Esus4   Esus4
Every time you're here.

Esus4 B7/11 Esus4 B7/11

Verse 2:
Esus4                  B7/11
What would it take for me to be with you?
Esus4                               B7/11                   Esus4
I swear I'd rip my heart out if you said you'd be impressed
            B7/11
Please be impressed.
Esus4                             B7/11                    Esus4    B7/11
I'd go so far to please you but I bet you wouldn't care at all
      Esus4      B7/11
Oh at all.

Esus4          B7/11
Hopeless love, please leave me.
     Esus4                           B7/11                  Esus4
This broken heart is far too weak to run for you this long.
              B7/11
Why don't you care at all?
    Esus4       B7/11
I'm dying for a place in your heart.


Pre-Chorus (same):
E        Asus2            Bb             A
Can you take this silence like a pill so I can breathe again?
E         Asus2          Bb         A
I've been trying to ignore the best part of you.
B7/11                     Esus4                 Asus2
But I'm still hoping that I'll be with you somehow,
    Asus2
Somehow.


Chorus (Same, without chord transition at the end):
E         Esus4
Please be home tonight.
B7/11                               Asus2      Esus4
I'll die if I don't get a chance to make this just right.
E         Esus4
I'm sorry but I can't
B7/11
Forget about the way I feel,
Asus2             Esus4   Esus4
Every time you're here.


Bridge:
(Still relative to capo)
Main Riff 1
e|--------------|---------------0---------|--------------|---------------0---------||
B|----------0~--|----------0------0-------|----------0~--|----------0------0-------||
G|--------------|-------------------------|--------------|-------------------------||
D|----1--2------|----1--2------------2----|----1--2------|----1--2------------2----||
A|--------------|-------------------------|--0-----------|--0----------------------||
E|--0-----------|--0----------------------|--------------|-------------------------||

Main Riff 2
e|--------------|---------------0---------|--------------|--0~--||
B|----------0~--|----------0------0-------|----------0~--|--0~--||
G|--------------|-------------------------|--------------|--2~--||
D|----1--2------|----1--2------------2----|----1--2------|--2~--||
A|--------------|-------------------------|--------------|--0~--||
E|--0-----------|--0----------------------|--0-----------|--0~--||

(Main Riff 1)
(Main Riff 2)

(Main Riff 1 x2, starting on "love")
Hopeless love, why did you carve your home in me?
This broken heart is too weak to hold your weight.


Outro:
e|----------------|---------------0---------|-------------0-------|--------0----------------||
B|----------0-0---|----------0------0-------|----------0----0-----|-----0---------0---------||
G|----------------|-------------------------|---------------------|-------------------------||
D|----1--2------2-|----1--2------------2----|----1--2---------2---|--2---------------2---1--||
A|----------------|-------------------------|--0------------------|-------------------------||
E|--2-------------|--2----------------------|---------------------|-------------------------||

e|-------------0--|-----------0-------------|--0~--||
B|----------0-----|-----------------0-------|--0~--||
G|----------------|-------------------------|--2~--||
D|----1--2--------|----1--2------------2----|--2~--||
A|----------------|-------------------------|--0~--||
E|--0-------------|--0----------------------|--0~--||

And now I regret the day we met.
And help me forget your name.
            
Hard to play? Try these video lessons and learn fast. | Correct




comments powered by Disqus
↑ Back to top | Tablatures and chords are parodies/interpretations of the original songs. You may use it for private study, scholarship, research or language learning purposes only