» » »

Daphne Loves Derby, Heres One For The Four Years We Had Tabs (ver.1)

Artists:  A B C D E F G H I J K L M N O P Q R S T U V W X Y Z # 

Heres One For The Four Years We Had Tabs (ver.1)

Daphne Loves Derby Tabs
Rating:
0/5 (0 votes)
Hard to play? Try these video lessons and learn fast.
                
Guitar 1: Standard, Drop D (DADGBe)
Guitar 2: Standard, Drop D (DADGBe)

Intro: Part 1

Guitar 1 (Clean)

e[--0--]
B[--0--]
G[--9--] Figure out the strum pattern, it's pretty simple.
D[--x--]
A[--7--]
D[--x--]

Intro: Part 2

Guitar 1 (Distortion)

e[--------------------------------------] 
B[--------------------------------------]
G[--999-888-999-888-999-888-999-111111--] (x2)
D[--xxx-xxx-xxx-xxx-xxx-xxx-xxx-x-x-x---]
A[--777-666-777-666-777-666-777-9-9-9---]
D[--------------------------------------]

e[--------------------------------------]
B[--------------------------------------]
G[--999-888-----------------------------]
D[--xxx-xxx-----------------------------]
A[--777-666-----------------------------]
D[--------------------------------------]

Guitar 2 (Distortion)

e[--------------------------------------] 
B[--------------------------------------]
G[--------------------------------------] (x2)
D[--777-666-777-666-777-666-777-999-----]
A[--777-666-777-666-777-666-777-999-----]
D[--777-666-777-666-777-666-777-999-----]

e[--------------------------------------] 
B[--------------------------------------]
G[--------------------------------------]
D[--777-666-----------------------------]
A[--777-666-----------------------------]
D[--777-666-----------------------------]

Verse: Part 1

Guitar 1 (Distortion)

e[-----------------] 
B[-----------------]
G[--1111-99-88-99--] (x16)
D[-----------------]
A[-----------------]
D[-----------------]
   PM------------

Verse: Part 2

Guitar 1 (Distortion)

e[--------------------------------------] 
B[--------------------------------------]
G[--999999~-888888~---------------------]
D[--xxxxxx~-xxxxxx~---------------------]
A[--777777~-666666~---------------------]
D[--------------------------------------]

Guitar 2 (Distortion)

e[--------------------------------------] 
B[--------------------------------------]
G[--------------------------------------]
D[--777777~-666666~---------------------]
A[--777777~-666666~---------------------]
D[--777777~-666666~---------------------]

Verse: Part 3

Guitar 1 (Distortion)

e[--------------------------------------] 
B[--------------------------------------]
G[-------999~------888~-----------------] 
D[-------xxx~------xxx~-----------------]
A[-------777~------666~-----------------]
D[--------------------------------------]

Guitar 2 (Distortion)

e[--------------------------------------] 
B[--------------------------------------]
G[--------------------------------------]
D[--7777-777--6666-666------------------]
A[--7777-777--6666-666------------------]
D[--7777-777--6666-666------------------]
   PM---     PM---

Verse: Part 4

Guitar 1 (Distortion)

e[--------------------------------------] 
B[--------------------------------------]
G[--999-888-999-888---------------------] 
D[--xxx-xxx-xxx-xxx---------------------]
A[--777-666-777-666---------------------]
D[--------------------------------------]

Guitar 2 (Distortion)

e[--------------------------------------] 
B[--------------------------------------]
G[--------------------------------------] 
D[--777-666-777-666---------------------]
A[--777-666-777-666---------------------]
D[--777-666-777-666---------------------]

Bridge: Part 1

Guitar 1 (Clean)

e[--0--]
B[--0--]
G[--9--] Figure out the strum pattern, it's pretty simple.
D[--x--]
A[--7--]
D[--x--]

Bridge: Part 2 

Guitar 1 (Distortion)

e[--------------------------------------] 
B[--------------------------------------]
G[--999-888-999-888-999-888-999-111111--] (x2)
D[--xxx-xxx-xxx-xxx-xxx-xxx-xxx-x-x-x---]
A[--777-666-777-666-777-666-777-9-9-9---]
D[--------------------------------------]

e[--------------------------------------]
B[--------------------------------------]
G[--999-888-----------------------------]
D[--xxx-xxx-----------------------------]
A[--777-666-----------------------------]
D[--------------------------------------]

Guitar 2 (Distortion)

e[--------------------------------------] 
B[--------------------------------------]
G[--------------------------------------] (x2)
D[--777-666-777-666-777-666-777-999-----]
A[--777-666-777-666-777-666-777-999-----]
D[--777-666-777-666-777-666-777-999-----]

e[--------------------------------------] 
B[--------------------------------------]
G[--------------------------------------]
D[--777-666-----------------------------]
A[--777-666-----------------------------]
D[--777-666-----------------------------]

Bridge: Part 3

Guitar 1 (Distortion)

e[----------------------------] 
B[----------------------------]
G[--9-11-9-8-9-8-9-8-9-8-9-8--] (Strum, listen for chord changes.)
D[--x-x--x-x-x-x-x-x-x-x-x-x--] (Hit each about eight times.)
A[--7-9--7-6-7-6-7-6-7-6-7-6--]
D[----------------------------]

Guitar 2 (Distortion)

e[----------------------------] 
B[----------------------------]
G[----------------------------] 
D[--7-9-7-6-7-6-7-6-7-6-7-6---]
A[--7-9-7-6-7-6-7-6-7-6-7-6---]
D[--7-9-7-6-7-6-7-6-7-6-7-6---]

Bridge: Part 4

Guitar 1 (Distortion)

e[--------------------------------------] 
B[--------------------------------------]
G[-------999~------888~---4~------------] 
D[-------xxx~------xxx~---x~------------]
A[-------777~------666~---2~------------]
D[--------------------------------------]

Guitar 2 (Distortion)

e[--------------------------------------] 
B[--------------------------------------]
G[--------------------------------------]
D[--7777-777--6666-666----2~------------]
A[--7777-777--6666-666----2~------------]
D[--7777-777--6666-666----2~------------]
   PM---     PM---

Bridge: Part 5

Guitar 1 (Clean)

e[--0--0--0--]
B[--0--0--0--]
G[--4--8--9--] (Strum) (x6)
D[--x--x--x--] 
A[--2--6--7--]
D[--x--x--x--]

Guitar 2 (Clean)

e[--0-0-9-0-0-0-9-0--0-0-11-0-0-0-11-0--0-0-12-0-0-0-12-0--] 
B[---------------------------------------------------------]
G[---------------------------------------------------------] 
D[---------------------------------------------------------]
A[---------------------------------------------------------]
D[---------------------------------------------------------]
  PM-----------------------------------------------------

Bridge: Part 6

Guitar 1 (Clean)

e[--0--0--0--]
B[--0--0--0--]
G[--4--8--9--] (Strum) 
D[--x--x--x--] 
A[--2--6--7--]
D[--x--x--x--]

Guitar 2 (Clean)

e[-------------------------------------------------------------] 
B[-------------------------------------------------------------]
G[-------------------------------------------------------------] 
D[-------------------------------------------------------------]
A[-------------------------------------------------------------]
D[--7-7-7-7-7-7-7-7--9-9-9-9-9-9-9-9--11-11-11-11-11-11-11-11--]
  PM---------------------------------------------------------

Guitar 1 (Clean)

e[--0--0--0~---12~--]
B[--0--0--0~---10~--]
G[--4--8--9~----9~--] (Strum the first two chords) 
D[--x--x--x~----9~--] 
A[--2--6--7~----9~--]
D[--x--x--x~----9~--]

Outro: Part 1

Guitar 1 (Distortion)

e[----------------] 
B[----------------]
G[--9--11-14--17--] (x16 per chord) 
D[--x--x---x---x--]
A[--7--9--12--15--]
D[----------------]

Guitar 2 (Distortion)

e[----------------] 
B[----------------]
G[----------------] (x16 per chord) 
D[--7--9--12--15--]
A[--7--9--12--15--]
D[--7--9--12--15--]

Outro: Part 2

Guitar 1 (Distortion)

e[--------------------] 
B[--------------------]
G[--9--11-14--17--16--] (x16 per chord, except the last; x8) 
D[--x--x---x---x---x--]
A[--7--9--12--15--14--]
D[--------------------]

Guitar 2 (Distortion)

e[--------------------] 
B[--------------------]
G[--------------------] (x16 per chord, except the last; x8)
D[--7--9--12--15--14--]
A[--7--9--12--15--14--]
D[--7--9--12--15--14--]

Outro: Part 3

Guitar 1 (Distortion)

e[-----------]
B[-----------]
G[--4--9--4--] 
D[--x--x--x--] (Strum, listen for changes. It's pretty simple.)
A[--2--7--2--]
D[-----------]

Guitar 2 (Distortion)

e[-----------]
B[-----------]
G[-----------] 
D[--2--7--2--] (Strum, listen for changes. It's pretty simple.)
A[--2--7--2--]
D[--2--7--2--]

Outro: Part 4

Guitar 1 (Distortion)

e[----------------------------------------------]
B[----------------------------------------------]
G[--1616161616-1414141414-1313131313-1111111111-] 
D[--x-x-x-x-x--x-x-x-x-x--x-x-x-x-x--x-x-x-x-x--] 
A[--1414141414-1212121212-1111111111-9-9-9-9-9--]
D[----------------------------------------------]

Guitar 2 (Distortion) 

e[------------------------------------------]
B[------------------------------------------]
G[------------------------------------------] 
D[--1414141414-1212121212-1111111111-99999--] 
A[--1414141414-1212121212-1111111111-99999--]
D[--1414141414-1212121212-1111111111-99999--]

Outro: Part 5

Guitar 1 (Distortion)

e[--------------------------------------] 
B[--------------------------------------]
G[-----131313~----111111~---------------] 
D[-----x-x-x-~----x-x-x~----------------]
A[-----111111~----9-9-9~----------------]
D[--------------------------------------]

Guitar 2 (Distortion)

e[--------------------------------------] 
B[--------------------------------------]
G[--------------------------------------]
D[--7777------6666------2222------------]
A[--7777------6666------2222------------]
D[--7777------6666------2222------------]
   PM---     PM---     PM---

End!

Wow that took forever. xD
Anyway, comments or suggestions always welcome. 
DLD FTW!

Lyrics: 

Whatever this has come to be
Great value for the ones who need it
And in time we will see this through again
Take the time to taste the blood we need
Give me all that I'm asking for
Satisfy and don't ever disappoint my faith
Be true like you're always true to me
I'm sorry I'm not good enough
Lets make up something we will never taste
No matter what I'll be there
Whatever it takes, I'm there
Give me all that I'm asking for
Satisfy me
We're so much better than you'll ever be
            

comments powered by Disqus
↑ Back to top | Daphne Loves Derby Tabs for Heres One For The Four Years We Had. Lyrics for acoustic guitar and electric guitar. Tablatures and chords are parodies/interpretations of the original songs. You may use it for private study, scholarship, research or language learning purposes only