» » »

Daphne Loves Derby, Bedroom Chords (ver.1)

Artists:  A B C D E F G H I J K L M N O P Q R S T U V W X Y Z # 

Bedroom Chords (ver.1)

Daphne Loves Derby Tabs
Rating:
3/5 (5 votes)
Bedroom lessons Tabs too difficult? Try these video lessons and learn fast
                
Watch me play this song :)


Here's the tablature for the chords you strum through the song (sorry I don't know seem 
the names!)
Just listen to the song and you'll know when to play each chord :)

Tuning: Drop D at 1/2 step down


Intro/Verses

"Show me something good..." / "I can't imagine all the things.."

       Am7    Em9    F#7(no 3rd)
e|------0------0------0------|
B|------1------3------3------|
G|------0------0------0------|
D|------2------0------4------|
A|------0------2------5------|
E|------x------2------x------|


Chorus

"So can I just hold on to you..."
e|------3------0------2------|    |
B|------3------3------3------|    |
G|------0------0------4------| x2 |
D|------0------0------4------|    |
A|------3-----(5)-----2------|    |
E|------x------5------x------|    |

"I take apart what is left and leave it..."
e|------3------0-----|
B|------3------3-----|
G|------0------0-----| x2
D|------0------0-----|
A|------3------2-----|
E|------x------2-----|


"...on my own."
e|------0------0------0------|
B|------1------0------0------|
G|------0------0------0------|
D|------2------0------2------|
A|------0------2------3------|
E|------x------x------x------|

Bridge

"Hey, I know its hard for you..."
e|------0------0------0------0------|    |
B|------3------3------0------0------|    |
G|------0------0------0------0------| x2 |
D|------0------0------2------2------|    |
A|------2-----(5)-----4------3------|    |
E|------2------5------x------x------|    |


Chorus


The End :)
            
Submit corrections

comments powered by Disqus
↑ Back to top | Daphne Loves Derby Chords for Bedroom. Lyrics for acoustic guitar and electric guitar. Tablatures and chords are parodies/interpretations of the original songs. You may use it for private study, scholarship, research or language learning purposes only