» » »

Danzig, Until You Call On The Dark Bass tabs (ver.1)

Artists:  A B C D E F G H I J K L M N O P Q R S T U V W X Y Z # 

Until You Call On The Dark Bass tabs (ver.1)

Danzig Tabs
 Rating:
4/5 (4 votes)
Until You Call On The Dark lessons Tabs too difficult? Try these video lessons and learn fast
1
                Standard Tuning

Start

G|---------------------------------------
D|---------------------------------------
A|---------7-6-------7-6------------------
E|-----4---------4-----------7--6--5-----

Middle (repeat it few times)

G|-------------------------------------
D|-------------------------------------
A|-------------------------------------
E|-----4~-----10--7--5-----------------

Start (again)

G|--------------------------------------
D|--------------------------------------
A|---------7-6-------7-6----------------
E|-----4---------4-----------7--6--5----

At the end 

G|-------------------------------------
D|-------------------------------------
A|-------------------------------------
E|-----4~------------------------------


Hard, isn't it ? Anyway there is only one advice I can give you : try 
to listen the time for the middle and the final part of this song, and 
let ring the note as much as you can, expecially the first (4~). 



     @   @    @   @
   _/-\_/-\__/-\_/-\_
   \-=:King-Nappa:=-/
    \_^°°^_/
     ##############
            
Submit corrections

comments powered by Disqus
↑ Back to top | Danzig Bass for Until You Call On The Dark. Lyrics for acoustic guitar and electric guitar. 1 Tablatures and chords are parodies/interpretations of the original songs. You may use it for private study, scholarship, research or language learning purposes only