» » »

Twist Of Cain Bass tabs (ver.1)

Artists:  A B C D E F G H I J K L M N O P Q R S T U V W X Y Z # 

Twist Of Cain Bass tabs (ver.1)

Danzig
Rating:
0/5 (0 votes)

Tabs too difficult? Try these video lessons and learn fast.
                "(2)
Its standard tunning...E,A,D,G
Intro
E|------------------------|
A|------------666---------|
D|------------------------|
G|------------------------|X2

Chorus
E|------------------------|
A|7-0-6-3-00-7-0-6-0-3-00-77-0-6-0-3-000-666|
D|------------------------|
G|------------------------| X2

Verse
E|-555-88888-55-8888------|
A|-------------------6/---|
D|------------------------|
G|------------------------|X3

E|-555-88888-55-88888-----|
A|--------------------666-|
D|------------------------|
G|------------------------|

Interlude
E|-------5-3-5-0--4-------|
A|-00--3-----------3330-55|
D|------------------------|
G|------------------------|X5

Ending
E|------------------------|
A|---0--0--0--0-----------|
D|------------------------|
G|------------------------|

Play Order
Intro
Chorus
Verse 
Chorus
Verse
Chorus
Interlude
Chorus
Verse
Chorus
Interlude X6
Ending
"            
Tabs too difficult? Try these video lessons and learn fast.


comments powered by Disqus
↑ Back to top | Tablatures and chords are parodies/interpretations of the original songs. You may use it for private study, scholarship, research or language learning purposes only