» » »

Danzig, Son Of The Morning Star Tabs (ver.1)

Artists:  A B C D E F G H I J K L M N O P Q R S T U V W X Y Z # 

Son Of The Morning Star Tabs (ver.1)

Danzig Tabs
 Rating:
4/5 (4 votes)
Son Of The Morning Star lessons Tabs too difficult? Try these video lessons and learn fast
1
                SON OF THE MORNING STAR
transcription: Liam Wolfen Cullen

Intro:
E|--4------------------|
B|--5------------------|
G|--4------------------|
D|--6------------------|
A|--4--6--4------------|
E|-----------6----4h6--|

VERSE ONE:
Before each ending:
E|--4-----------|
B|--5-----------|  Notes:  This is the first measure played, followed by
G|--4-----------|          the following endings in the order in which they
D|--6-----------|          are numbered.  The same process was used to
A|--4--6--4-----|          transcribe the second verse below.
E|-----------6--|

ending one:	ending two:	ending three:
E|------11--|	E|--9/11\9--|	E|-------------|
B|----------|	B|----------|	B|-------------|
G|--11------|	G|--9/11\9--|	G|-------------|
D|----------|	D|----------|	D|--14--14/16--|
A|----------|	A|----------|	A|-------------|
E|----------|	E|----------|	E|------14/16--|

ending four:	ending five:
E|-------|	E|---------12--11--4--|
B|-------|	B|-----------------5--|
G|-------|	G|--11/13------11--4--|
D|-------|	D|--------------------|
A|-------|	A|--------------------|
E|--4h6--|	E|--------------------|

ending six:	ending seven:		ending eight: w/ dist.
E|-----------|	E|--12-----11/4--|	E|---------|
B|-----------|	B|------9--------|	B|---------|
G|-----------|	G|---------------|	G|---------|
D|--9/11--9--|	D|---------------|	D|---------|
A|-----------|	A|---------------|	A|---------|
E|--9/11--9--|	E|---------------|	E|--7--7\--|

CHORUS:
E|----------------------------------------------------------
B|----------------------------------------------------------
G|----------------------------------------------------------
D|-----------------------------------2b-----------2-----4b--
A|-----------1-----2-----3-----4--4------4--4--4-----4------
E|--2--2--2-----2-----2-----2-------------------------------

(CONTINUED)
E|-----------------------------------------------------
B|-----------------------------------------------------
G|-----------------------------------------------------
D|--2~~--------------------------------------------2b--
A|-------4--2--0-----------1-----2-----3-----4--4------
E|----------------2--2--2-----2-----2-----2------------

(CONTINUED)
E|--------------------------------------------------------|
B|--------------------------------------------------------|
G|--------------------------------------------------------|
D|------2--2------2--2------2--2------2-------2-----------|
A|--/4--------/4--------/4--------/4-----3/4-----4--2--0--|
E|--------------------------------------------------------|


VERSE TWO
at the start of verse 2 it repeats the intro for ten bars.

at the start of each ending:
E|--4-------------|
B|--5-------------|
G|--4-------------|
D|--6-------------|
A|--4----6--4-----|
E|-------------6--|

ending one:			ending two:
E|--------11--11\9--4--|	E|--------------|
B|------------------5--|	B|--9--------7--|
G|--9/11------11\9-----|	G|--9-----------|
D|---------------------|	D|--9--4--------|
A|---------------------|	A|--------4-----|
E|---------------------|	E|--------------|
                                             T

ending three:	ending four:
E|--9--X--|	E|---------12--11--4--9--4----|
B|--------|	B|----------------------------|
G|--------|	G|--11/13------11--4--9--4----|
D|--------|	D|----------------------------|
A|--------|	A|-----------------------4h6--|
E|--------|	E|----------------------------|
		    T	    T    T     T

ending 5:		ending six:
E|------------------|	E|---------------|
B|--9/11\9--9/11\9--|	B|---------------|
G|------------------|	G|--9------------|
D|--9/11\9--9/11\9--|	D|--11--4--------|
A|------------------|	A|---------4-----|
E|------------------|	E|------------4--|

ending seven:		ending eight:
E|---------------|	E|--9-----------|
B|---------------|	B|----------11--|
G|--11/13\11--4--|	G|-----9h4------|
D|---------------|	D|--------------|
A|---------------|	A|--------------|
E|---------------|	E|--------------|
			    T  T    T

ending nine:
E|-----------------------------------------|
B|-----------------------------------------|
G|--9--------11--------13--------11--------|
D|-----4---------6---------6---------6-----|
A|--------4---------4---------4---------4--|
E|-----------------------------------------|
     T        T         T         T

ending ten:
E|----------|
B|----------|
G|----------|
D|----------|
A|----------|
E|--7--7\0--|

the third verse is still something of a mystery to me, however it starts off
with just the intro riff played with distortion, you can reuse one of two
verse
which will work fine, however on the last bar  it uses a lot of right hand
tapping before breaking into the chorus again. Mess about and you should get
something that sounds roughly the same.
            
Submit corrections

comments powered by Disqus
↑ Back to top | Danzig Tabs for Son Of The Morning Star. Lyrics for acoustic guitar and electric guitar. 1 Tablatures and chords are parodies/interpretations of the original songs. You may use it for private study, scholarship, research or language learning purposes only