» » »

Danzig, Skin Carver Tabs (ver.1)

Artists:  A B C D E F G H I J K L M N O P Q R S T U V W X Y Z # 

Skin Carver Tabs (ver.1)

Danzig Tabs
 Rating:
4/5 (4 votes)
Skin Carver lessons Tabs too difficult? Try these video lessons and learn fast
                e|-------------------------------|
B|-------------------------------|
G|-------------------------------|
D|--5-----6-----8-------6---8----|
A|--3-----4-----6-------4---6--8-|
E|--0-0-0-0-0-0-0-0-0-0-0-0-0----|
     P.M.. P.M.. P.M...  P.M  P.H
           Play 7 times

e|--------------------------------|
B|--------------------------------|
G|------------------------------2-|
D|--------------------------------|
A|--------------------------------|
E|--8-9-8-9-8-6-8-6-4-6-4-2-0-----|
                               P.H
            Play 1 time


e|------------------|------------------|------------------|------------------|
B|------------------|------------------|------------------|----------------6-|
G|------------------|------------------|------------------|----------------6-|
D|-2-----2-2-2-2-2-2|-2-----2-2-2-2-2-2|-2-----2-2-2-2-2-2|-2-----2-2-2-2----|
A|-2-----2-2-2-2-2-2|-2-----2-2-2-2-2-2|-2-----2-2-2-2-2-2|-2-----2-2-2-2----|
E|-0-000-0-0-0-0-0-0|-0-000-0-0-0-0-0-0|-0-000-0-0-0-0-0-0|-0-000-0-0-0-0----|
 P.M......................................................................
                                 Play 2 times

e|-------------------------------|
B|-------------------------------|
G|-------------------------------|
D|--6-----7-----9-------7---8----|
A|--4-----5-----7-------5---6--8-|
E|--0-0-0-0-0-0-0-0-0-0-0-0-0----|
     P.M.. P.M.. P.M...  P.M  P.H
             Play 4 times

e|---------------------------|---------------------------|
B|---------6-----------------|---------------------------|
G|---------6-----------------|---------------------------|
D|---------------------2---2-|---------4-----------2---2-|
A|---------------------2---2-|---------4-----------2---2-|
E|-0--0-0------0--0-0--0-0-0-|-0--0-0------0--0-0--0-0-0-|
  P.M....     P.M....   P.M   P.M....     P.M....   P.M
e|---------------------------|
B|---------6-----------------|
G|---------6-----------------|
D|---------------------2---2-|
A|---------------------2---2-|
E|-0--0-0------0--0-0--0-0-0-|
  P.M....     P.M....   P.M
         Play 1 time

e|--------------------------------|
B|--------------------------------|
G|------------------------------2-|
D|--------------------------------|
A|--------------------------------|
E|--9-10-9-10-9-7-9-7-5-7-5-3-0---|
                               P.H
            Play 1 time

e|------------------|------------------|------------------|------------------|
B|------------------|------------------|------------------|----------------6-|
G|------------------|------------------|------------------|----------------6-|
D|-2-----2-2-2-2-2-2|-2-----2-2-2-2-2-2|-2-----2-2-2-2-2-2|-2-----2-2-2-2----|
A|-2-----2-2-2-2-2-2|-2-----2-2-2-2-2-2|-2-----2-2-2-2-2-2|-2-----2-2-2-2----|
E|-0-000-0-0-0-0-0-0|-0-000-0-0-0-0-0-0|-0-000-0-0-0-0-0-0|-0-000-0-0-0-0----|
 P.M......................................................................
                                 Play 2 times

e|-------------------------------|
B|-------------------------------|
G|-------------------------------|
D|--6-----7-----9-------7---8----|
A|--4-----5-----7-------5---6--8-|
E|--0-0-0-0-0-0-0-0-0-0-0-0-0----|
     P.M.. P.M.. P.M...  P.M  P.H
             Play 4 times

e|---------------------------|---------------------------|
B|---------6-----------------|---------------------------|
G|---------6-----------------|---------------------------|
D|---------------------2---2-|---------4-----------2---2-|
A|---------------------2---2-|---------4-----------2---2-|
E|-0--0-0------0--0-0--0-0-0-|-0--0-0------0--0-0--0-0-0-|
  P.M....     P.M....   P.M   P.M....     P.M....   P.M
e|---------------------------|---------------------------|
B|---------6-----------------|---------------------------|
G|---------6-----------------|---------------------------|
D|---------------------2---2-|---------4-----------2---2-|
A|---------------------2---2-|---------4-----------2---2-|
E|-0--0-0------0--0-0--0-0-0-|-0--0-0------0--0-0--0-0-0-|
  P.M....     P.M....   P.M   P.M....     P.M....   P.M
                       Play 1 time

e|-----------------------|
B|-----------------------|
G|-----------------------|
D|-----------------------|
A|--------2---------2h3-2|
E|-0--0-0----0--0-0------|
         P.H       P.H P.H
       Play 8 times

e|-------------------------------|
B|-------------------------------|
G|-------------------------------|
D|--6-----7-----9-------7---8----|
A|--4-----5-----7-------5---6--8-|
E|--0-0-0-0-0-0-0-0-0-0-0-0-0----|
     P.M.. P.M.. P.M...  P.M  P.H
             Play 4 times & under solo

e|---------------------------|---------------------------|
B|---------6-----------------|---------------------------|
G|---------6-----------------|---------------------------|
D|---------------------2---2-|---------4-----------2---2-|
A|---------------------2---2-|---------4-----------2---2-|
E|-0--0-0------0--0-0--0-0-0-|-0--0-0------0--0-0--0-0-0-|
  P.M....     P.M....   P.M   P.M....     P.M....   P.M
e|---------------------------|---------------------------|
B|---------6-----------------|---------------------------|
G|---------6-----------------|---------------------------|
D|---------------------2---2-|---------4-----------2---2-|
A|---------------------2---2-|---------4-----------2---2-|
E|-0--0-0------0--0-0--0-0-0-|-0--0-0------0--0-0--0-0-0-|
  P.M....     P.M....   P.M   P.M....     P.M....   P.M
                      Play 4 times
            
Submit corrections

comments powered by Disqus
↑ Back to top | Danzig Tabs for Skin Carver. Lyrics for acoustic guitar and electric guitar. Tablatures and chords are parodies/interpretations of the original songs. You may use it for private study, scholarship, research or language learning purposes only