» » »

On A Wicked Night Tabs (ver.1)

Artists:  A B C D E F G H I J K L M N O P Q R S T U V W X Y Z # 

On A Wicked Night Tabs (ver.1)

Danzig
Rating:
0/5 (0 votes)

Hard to play? Try these video lessons and learn fast.
                On a Wicked Night
By Danzig


Intro (Clean w/finger-picking):
   C#m           E             B             C#m            (x5)
E:---------------------------------------------------------|
B:---5---------------------------------------------5-------|
G:-------6---------9---9---------4---4---------6-----6-----|
D:-----6---6---------9---9---------4---4---------6-----6---|
A:-4---------4-\-7---------7-/-2---------2-\-4-------------|
E:-------------------------0-------------------------------|

Verse 1:
C#m   E   B   C#m
Hey my lady in black
Now I see you're back
Haven't seen you for awhile
Kinda miss your deadly smile

Chorus:
C#m           A# B
On a windy night
On a windy night
On a wicked night
On a wicked night

Verse 2:
C#m   E   B   C#m
Hey my lady in death
Have you come
For my last breath
I never thought
That we were through
I bet you knew I knew it too
I never thought
That we were through
I bet you knew that I knew it too

*Repeat chorus with distortion
*Repeat verse 1 and 2 with distortion
*Chorus x2

*Improv Solo with chorus repeated to end
(it starts like this...)
E:------------------------------------------------------------------------|
B:------------------------------------------------------------------------|
G:-11b-11b-9-11b~~~11b-11b-9-11-9----11b-11b-9-11---9-11b-9-11-9----------|
D:--------------------------------11-----------------------------11-------|
A:------------------------------------------------------------------------|
E:------------------------------------------------------------------------|
            
Hard to play? Try these video lessons and learn fast. | Correct




comments powered by Disqus
↑ Back to top | Tablatures and chords are parodies/interpretations of the original songs. You may use it for private study, scholarship, research or language learning purposes only