» » »

Mother Bass tabs (ver.1)

Artists:  A B C D E F G H I J K L M N O P Q R S T U V W X Y Z # 

Mother Bass tabs (ver.1)

Danzig
Rating:
0/5 (0 votes)

Hard to play? Try these video lessons and learn fast.
                "(3)
::INTRO::
Guitars do the Intro, Guitar One starting, then guitar 2 doing the Over-dub.
The Bass Comes in later.
[STARTS AT - 0:44]
G|----------------------------------------------|
D|----------------------------------------------|
A|----------------------------------------------|
E|-7-7----7-7----7-7----7-7-7-7-7-7-7-7-7-7-7-7-|

::CHORUS::
Directly after the intro, the song goes into the chorus, which is played as follows
[STARTS AT - 0:58]
G|------------------------------|
D|------------------------------|
A|------------------------------|
E|-3-3-3-3-3-5-5-5-5-5--7---7-5-|
  ^(repeat this part 3x)^

Then...
G|---------------------------------------|
D|---------------------------------------|
A|---------------------------------------|
E|-3-3-3-3-3-5-5-5-5-5---2-2-2-2-2-2-2-2-|

Wait For the Drum Break and then into the Verse

::VERSE::
[STARTS AT 1:23]
G|---------------|
D|---------------|
A|---------------|
E|-7---3---5---7-|
^(Repeat 8x)^

Then...
G|-------| From this last part of the verse, we're going to head back
D|-------| Into the chorus, Listen for the repeats.
A|-------|
E|-3---5-|

::SOLO::
**Just play the Verse Riff underneath the solo. Wait for the drum break

*Head back into the Chorus.

*Under the second Solo, play the verse riff again.

::OUTRO::
G|---| End on the B, with the rest of the instruments.
D|---|
A|---|
E|-7-|
"            
Hard to play? Try these video lessons and learn fast. | Correct




comments powered by Disqus
↑ Back to top | Tablatures and chords are parodies/interpretations of the original songs. You may use it for private study, scholarship, research or language learning purposes only