>
 >
Mother

Mother Guitar Tabs

Danzig - Mother chords, tabs, tablatures, lyrics

Guitar lessons | Add/correct | Request | Top 50 tabs Artists:  A B C D E F G H I J K L M N O P Q R S T U V W X Y Z 0-9

Mother Guitar Tabs – Danzig

CD, Sheet music, Poster

Do you like Mother? Share with your friends now
Bass TabsBass Tabs v2ChordsChords v2Chords v3Drum TabsTabsTabs v2Tabs v3Ukulele

                                  MOTHER

                                ============

                                by Danzig


|---------------------------------------|------------------------------------
|------0--------------------------------|------------------------------------
|--4---0-----2----4------X--0----2----4-|--(4)-----2--4--0----0--2--2------4-
|--4---0-----2----4---------0----2----4-|--(4)--0--2--4--0----0--2--2---0--4-
|--2---2-----0----2---------2----0----2-|--(2)--2--0--2--2-------0------0--2-
|------3----------X---------3-----------|-------3--------3--3----------------
                         (Play 3x)
 
|----------------------------------------------------------------------------
|--------------------0-------0-------------------------------------------0---
|-(4)-----4---4------0-------0---2---2---0---4-------4---4-------0-------0---
|-(4)-2---4---4---0--0---0---0---2---2---0---4---2---4---4---0---0-----------
|-(2)-2---2-------0--2---2-------0-----------2---2---2---2---0---2---2-------
|--------------------3---3---------------------------------------3---3-------
 
|-----------------|----------------------------------------------------------
|-----------------|----------------------------------------------------------
|-2-----------4---|------4---4-------0-------0---2---2---0---4-------0-------
|-2---2-------4---|--2---4---4---0---0-------0---2---2---0---4---0---0-------
|-0---0---2---2---|--2---2-------0---2---2-------0-----------2---0---2-------
|---------2-------|------------------3---3---------------------------3-------
 
                                         1-------   2--------
|---------------------------------------|----------|-------------------------
|---------------------------------------|----------|-------------------------
|----------------------2----2---2-----4-|-4---2----|--4--2--5----------------
|--5---5---5---5-------2----2---2-----4-|-4---2----|--4--2--5----------------
|--5---5---5---5-------0----0---0--0--2-|-2---0----|--2--0--5----------------
|--3---3---0---0---0---------------0--2-|----------|--------3----------------
                               Play 2x
 
|---------------------------------------------|------------------------------
|---------------------------------------------|------------------------------
|------4---4-----2----2----2-2---4---4---4---2|----------------2-------------
|--5---5---5-----2----2----2-2---4---4---4---2|-5--5---5-5-----2-------------
|--5---5---5-----0----0----0-0-0-2---2---2---0|-5--5---5-5--5--0-------------
|--3---0---0--0----------------0-2---2--------|-3--3---3-3--3----------------
 

                            D.S. al Coda

|--------------------------------------|
|--------------------------------------|
|-2---2-2-2-2-------------------------4|
|-2---2-2-2-2---------------------4---4|
|-0---0-0-0-0---4-4-4-4-4-4-4-4---4---2|
|---------------2-2-2-2-2-2-2-2---2----|
 

 

        This is most of the song minus the guitar solo (which I don't have).
        I hope this helps.


-- 
A feminine principle of birth, growth, decay, and rebirth lies at the heart of
the veneration of the bear, for the bear is the suprime model--and therefore theguiding spirit--of the theme of renewal. > Shepard & Sanders "The Sacred Paw"





Comments


Popular Danzig tabs & chords
Devil's Plaything Bass Tabs
Diablos 88 Bass Tabs
Mother 2 Bass Tabs
1000 Devils Reign Tabs
Am I Demon? Tabs
End Of Time 1 Tabs
It's Coming Down 1 Tabs
Killer Wolf Tabs
Snakes Of Christ Tabs
1000 Devils Reign Ukulele


Song lyrics



↑ Back to top | Tablatures and chords are parodies/interpretations of the original songs. You may use it for private study, scholarship, research or language learning purposes only
© 2014 AZChords.com Contact us | Privacy policy | DMCA | Add/correct tabs | Request tabs | Top 50 tabs