» » »

How The Gods Kill Bass tabs (ver.1)

Artists:  A B C D E F G H I J K L M N O P Q R S T U V W X Y Z # 

How The Gods Kill Bass tabs (ver.1)

Danzig
Rating:
0/5 (0 votes)

Hard to play? Try these video lessons and learn fast.
                

Intro
G|-----
D|-----
A|-----
E|-0---

Intro Break
G|---------|
D|---------|
A|---------|
E|--0-33---|

Intro
G|-----
D|-----
A|-----
E|-0---

Verse
G|--------------|
D|--------------|
A|--------------|
E|----0-7-5-33--|

Intro Break
G|---------|
D|---------|
A|---------|
E|--0-33---|

Verse
G|--------------|
D|--------------|
A|--------------|
E|----0-7-5-33--|

Intro
G|-----
D|-----
A|-----
E|-0---
            
Hard to play? Try these video lessons and learn fast. | Correct




comments powered by Disqus
↑ Back to top | Tablatures and chords are parodies/interpretations of the original songs. You may use it for private study, scholarship, research or language learning purposes only