» » »

Danzig, Girl Bass tabs (ver.1)

Artists:  A B C D E F G H I J K L M N O P Q R S T U V W X Y Z # 

Girl Bass tabs (ver.1)

Danzig Tabs
Rating:
5/5 (1 vote)
Girl lessons Tabs too difficult? Try these video lessons and learn fast
                Danzig
Danizg II- Lucifuge

When the bass comes in do an up scale thing on A
Intro:
G----------------------------------------|
D----------------------------------------|
A---------5~------10~----------5~---10~--|
E--0~---5~-------------0~--5~------------|

G-------------------------------------|
D--------------5~---------------------|
A--------3~--5~-------------5~----10~-|
E-0-3-0-------------0~--5~------------|

Verse:
G------------------I-------|
D------------------I-------|
A----3~---0~--5~---I-------|
E-0~-------------0-I-0-3-0-|

Pre-Chorus:
G---------------------|
D---------------------|
A-2-2-2-2-2-2-2-2-2-2-|
E---------------------|

Chorus:
G-------------------------------------------------|
D-------------------------------------------------|
A---------5~------10~----7---7-----5~---10~-------|
E--0~---5~------------0~---0----5~----------0-3-0-|

Bridge/Solo:
G----------------------------|
D----------------------------|
A--------5-7-----5-7-7--5----|
E--5-5-5------5------------7-|

G---------------------------|
D---------------------------|
A-------5-7--0-7--0-6-5-3-0-|
E-5-5-5---------------------|

G----------------------------|
D----------------------------|
A--------5-7-----5-7-7--5----|
E--5-5-5------5------------7-|

G------------------------------|
D------------------------------|
A-------5-7--------------------|
E-5-5-5--------5-5-5-5-5-5-5-5-|

G--------------------------|
D--------------------------|
A--------7-9----7-9-9-7----|
E-7-7-7------7-----------9-|

G----------------------------------|
D----------------------------------|
A--------7-9-----------------------|
E--7-7-7--------7--7-7-7-7-7-7-7-7-|
            

comments powered by Disqus
↑ Back to top | Danzig Bass for Girl. Lyrics for acoustic guitar and electric guitar. Tablatures and chords are parodies/interpretations of the original songs. You may use it for private study, scholarship, research or language learning purposes only