» » »

Danzig, End Of Time Tabs (ver.1)

Artists:  A B C D E F G H I J K L M N O P Q R S T U V W X Y Z # 

End Of Time Tabs (ver.1)

Danzig Tabs
 Rating:
4/5 (6 votes)
End Of Time lessons Tabs too difficult? Try these video lessons and learn fast
1
                END OF TIME
```````````
Tuning: Standard

INTRO:
e--------------------------------------------------------------------------|
B-------------------------------------------3-----3------------------------|
G------4-----4-----------5-----5---------------------------5----5----------|
D----2-----2-----2-----2-----2-----2-----2-----2----2----2----2----2-------|
A--2-----2-----2-----3-----3-----3-----2-----2----2----3----3----3---------|
E--------------------------------------------------------------------------|

CHORUS A
e---------------------------------------------------------------------------|
B---------------------------------------------------------------------------|
G---------------------------------------------------------------------------|
D----------------------5---(5)---------7---(7)---------5---(5)--------------|
A----------2-----------3---(3)---------5---(5)---------3---(3)--------------|
E--0-0-0-0-0---0-0-0-0---------0-0-0-0---------0-0-0-0----------------------|

e--------------------------------------------------------------------------|
B--------------------------------------------------------------------------|
G--------------------------------------------------------------------------|
D----------------------5---(5)---------7----5-5-5-5-5-5-5-5-5-5------------|
A----------2-----------3---(3)---------5----3-3-3-3-3-3-3-3-3-3---3/(12)\--|
E--0-0-0-0-0---0-0-0-0---------0-0-0-0-------------------------------------|
                                         p.m...................

VERSE A
e--------------------------------------------------------------------------|
B--------------------------------------------------------------------------|
G--------------------------------------------------------------------------|
D--2------5-----5---3-----7-----7-----2-------5-----5---3-----7---7---7----|
A--2------5-----5---3-----7-----7-----2-------5-----5---3-----7---7---7----|
E--0--0-0---0-0---0---0-0---0-0---0---0---0-0---0-0---0---0-0---0---0------|

VERSE B
e--------------------------------------------------------------------------|
B--------------------------------------------------------------------------|
G--------------------------------------------------------------------------|
D--------------------------------------------------------------------------|
A--2-----2-----2-----5-----5-----5-----3-----3-----3-----7-----7-----7-----|
E--0--0--0--0--0--0--3--0--3--0--3--0--1--0--1--0--1--0--5--0--5--0--5--0--|

CHORUS B
e---------------------------------------------------------------------------|
B---------------------------------------------------------------------------|
G---------------------------------------------------------------------------|
D---------------------------5---(5)---------7---(7)---------5---(5)---------|
A----------2--(2)-----------3---(3)---------5---(5)---------3---(3)---------|
E--0-0-0-0-0--(0)---0-0-0-0---------0-0-0-0---------0-0-0-0-----------------|

e--------------------------------------------------------------------------|
B--------------------------------------------------------------------------|
G--------------------------------------------------------------------------|
D---------------------------5---(5)---------7----5-5-5-5-5-5-5-5-5-5-5--X--|
A----------2--(2)-----------3---(3)---------5----3-3-3-3-3-3-3-3-3-3-3--X--|
E--0-0-0-0-0--(0)---0-0-0-0---------0-0-0-0--------------------------------|
                                              p.m.....................

GUITAR SOLO
e-------------|---------------------------------|--------------------|------|
B-------------|---------------------------------|-------15--17-17----|------|
G-------------|---------------------------------|--/11------16-16----|------|
D-------------|------------12----14br~~~--------|--/12---------------|------|
A--/7~~~~~(7)-|---------12---------------14~~---|--------------------|------|
E-------------|--12--15-------------------------|--------------------|------|
            p.m...............

e------------------------------------------------------------------|--------|
B------------------------------------------------------------------|--------|
G--19b~~~~~--19p17----19h17---21b~~~~~~~21b~~~~~21b~~~21br~~~------|--------|
D------------------19-----------------------------------------21~~-|--------|
A------------------------------------------------------------------|--------|
E------------------------------------------------------------------|--------|

e--------------------------------------------------------|------------------|
B--------------------------------------------------------|------------------|
G--(10)/19-----------------------------------------------|------------------|
D----------19-------21-16------21----21------------------|------------------|
A-------------17----------15------21----21---15----14----|------------------|
E-----------------------------------------------17-------|------------------|

                  *this note is not in the solo but it still sounds good
e----------------------|----------------------------------------------------|
B----------------------|-----------------------------------------17h19p17---|
G-----------19---*18---|------------14h16--17h16--14h16---17-19-------------|
D--17--16---21----19---|--19--16-17-----------------------------------------|
A--19--17--------------|--19------------------------------------------------|
E----------------------|----------------------------------------------------|

e---------------------------------------------------24~~24~~----22br~~~(22)|
B-----17--19h20-19-17----17----------------------22-24~~24~~---------------|
G--19-----------------19----19/23h24-23----23-24---------------------------|
D---------------------------------------24---------------------------------|
A--------------------------------------------------------------------------|
E--------------------------------------------------------------------------|

Outro
e--------------------------------------------------------------------------|
B--------------------------------------------------------------------------|
G--------------------------------------------------------------------------|
D---------------------------5---(5)----------7---(7)---------5---(5)-------|
A----------2--(2)-----------3---(3)----------5---(5)---------3---(3)-------|
E--0-0-0-0-0--(0)---0-0-0-0----------0-0-0-0---------0-0-0-0---------------|

INTRO 4x  (clean)
CHORUS A
VERSE A
VERSE B 2x
INTRO 2x  (w/distortion)
VERSE A
VERSE B 2x
INTRO 2x (w/distortion)
CHORUS B
Guitar Solo (w/VERSE B 2x)
INTRO 2x
Outro 4x
C 12x  (w/palm mute)
Em
            
Submit corrections

comments powered by Disqus
↑ Back to top | Danzig Tabs for End Of Time. Lyrics for acoustic guitar and electric guitar. 1 Tablatures and chords are parodies/interpretations of the original songs. You may use it for private study, scholarship, research or language learning purposes only