>
 >
Devil's Plaything 1

Devil's Plaything 1 Guitar Tabs

Danzig - Devil's Plaything 1 chords, tabs, tablatures, lyrics

Guitar lessons | Add/correct | Request | Top 50 tabs Artists:  A B C D E F G H I J K L M N O P Q R S T U V W X Y Z 0-9

Devil's Plaything 1 Guitar Tabs – Danzig

CD, Sheet music, Poster

Do you like Devil's Plaything 1? Share with your friends now
Bass TabsBass Tabs v2Drum TabsTabsTabs v2
 _ _ _ _ _ _ _ _ _ _ _ _ _ _ _ _ _ _ _ _ _ _ _ _ _ _ _ _ _ _ _ _ _ _ _ _
|DEVIL'S PLAYTHING                                                       \
|=================                                                       |
|This song is from the "Danzig II:Lucifuge" record. Its according to     |
|me the best album Danzig ever made. The intro sounds a bit like         |
|The Doors to me. Please write to me if you want to                      |
|talk about this tab or Danzig in general.                               |
\_ _ _ _ _ _ _ _ _ _ _ _ _ _ _ _ _ _ _ _ _ _ _ _ _ _ _ _ _ _ _ _ _ _ _ _ /
Intro
E|------12--------12--------|------10--------12------|
B|---12--------12--------12-|---10--------12------12-|
G|-9---------9---------9----|-7---------9-------9----|
D|--------------------------|------------------------|
A|--------------------------|------------------------|
E|--------------------------|------------------------|

Intro fill (It's not necessary to play this,
you can just play the normal intro instead)
E|------12--------12--------|-15-14--------------12--------|
B|---12--------12--------12-|-------15-17-----12--------12-|
G|-9---------9---------9----|-------------------------9----|
D|--------------------------|------------------------------|
A|--------------------------|------------------------------|
E|--------------------------|------------------------------|

Power Chords:
E5: 12 14 14 X X X
C5:  8 10 10 X X X (0 10 10 X X X: Sometimes for some effect)
D5: 10 12 12 X X X
(If you want to play it acoustic, play it with normal chords E,C,D
that sounds good too)

I don't play bass myself,
but i guess this is the way it should be played.
Bass 1
|----------------------------------------------------------------|
|----------------------------------------------------------------|
|----------------------------------------------------------------|
|-12-12-12-12-12-12-12-12-12-12-12-12-12-12-12-12-12-12-12-12----|

Bass 2
|----------------------------|
|----------------------------|
|----------------------------|
|-12-12-12-8-8-8-10-10-10----|

Lyrics:
(Intro played here)
Love is a flame
A devil's thing
A violent storm
About to be born
Just look in these eyes
See all the lies
All the things you see
You cannot deny

And this flame
That burns inside
If you get too close
Burn you alive
Just look in these eyes
And see if they lie
All these words I speak
You cannot deny

(Power chords 1 + bass 1 played here)
Got a light
Shines on me
Gentle light
It will never be
See the flame
In my hand
If you're playing with fire
You're playing in Hell

(Power chords 2 + bass 2 played here)
Devil's plaything
In my hands
If you don't want pain
You don't understand
Got a light
Shines on me
If you wanna touch flames
Come unto me

(Power chords 1 + bass 1 played here)
Got a flame
Burns inside
If you don't wanna burn
Just walk on by
And the pain
You're feeling now
Is nothing compared
To the pleasures I hide

(Power chords 2 + bass 2 played here)
Devil's plaything
In my hands
If you don't want pain
You don't understand
Got a light
Shines on me
If you wanna touch flames
Come unto me

(Power chords 2 + bass 2 + Intro played here)
Oh oh oh oh oh
Oh oh oh oh oh oh oh
Oh oh oh oh oh
Oh oh oh oh oh oh oh

(Power chords 1 + bass 1 played here)
Got a flame
In my hand
If you don't want a fire
Step out of my light
Walk on by
Just look away
'Cause if you're on my path
You're better off dead

(Power chords 2 + bass 2 played here)
Devil's plaything
In my hands
If you don't want pain
You don't understand
Got a light
Shines on me
If you wanna touch flames
Then Come unto me

(Power chords 2 + bass 2 + Intro played here)
Oh oh oh oh oh oh
Oh oh oh oh oh
Oh oh oh oh oh
Oh oh oh oh oh
Oh oh oh oh
Oh oh oh
Oh oh oh oh
Oh oh oh oh oh oh
OPTIONAL:
(Play intro afterwards and end it slowly)

Okay, thats all folks, I hope you get it. This is my first "real" tab,
Please check out my other tab: Shakira, Moscas en la casa

So Long
/Victor





Comments


Popular Danzig tabs & chords
Black Angel, White Angel Bass Tabs
Her Black Wing Bass Tabs
Until You Call On The Dark Bass Tabs
Am I Demon? 1 Tabs
Heart Of The Devil Tabs
Let It Be Captured 1 Tabs
Little Whip 1 Tabs
Long Way Back From Hell Tabs
Mother Tabs
When The Dying Calls Ukulele


Song lyrics



↑ Back to top | Tablatures and chords are parodies/interpretations of the original songs. You may use it for private study, scholarship, research or language learning purposes only
© 2014 AZChords.com Contact us | Privacy policy | DMCA | Add/correct tabs | Request tabs | Top 50 tabs