» » »

Circle Of Snakes Tabs (ver.2)

Artists:  A B C D E F G H I J K L M N O P Q R S T U V W X Y Z # 

Circle Of Snakes Tabs (ver.2)

Danzig
Rating:
0/5 (0 votes)

Hard to play? Try these video lessons and learn fast.
                Tuning: C-G-C-F-A-D (It could be Drop D, but I think it sounds better in C.)

Intro 4x                                    Gtr. 2 starts here 2nd time
|-------------------------------------------|-------|
|-------------------------------------------|-------|
|-------------------------------------------|-------|
|-0--0-3-0-----0--0-3-0-----0--0-3-0--------|0-7-0-6|
|-0--0-3-0-3^^-0--0-3-0-3^^-0--0-3-0--------|0-7-0-6|
|-0--0-3-0-----0--0-3-0-----0--0-3-0-3/10/7-|0-7-0-6|
         .            .            .         .   .
Prechorus
    15x
|-----------|
|-----------|
|-----------|
|-0--0-0-0-0|
|-0--0-0-0-0|
|-0--0-0-0-0|
  .  . . . .

Fill 1x
|--------------|
|--------------|
|--------------|
|-------0-7-0-6|
|-------0-7-0-6|
|-10//7-0-7-0-6|
        .   .
Chorus 4x
|--------------------------------------------------|
|--------------------------------------------------|
|--------------------------------------------------|
|-0--0-3-0-----0--0-3-0-----0--0-3-0--------0-7-0-6|
|-0--0-3-0-3^^-0--0-3-0-3^^-0--0-3-0--------0-7-0-6|
|-0--0-3-0-----0--0-3-0-----0--0-3-0-3/10/7-0-7-0-6|
         .            .            .        .   .
Order:
x Intro
x Prechorus
x Fill
x Chorus
x Prechorus
x Fill
x Chorus
x Chorus(over solo)

Key:
. -palm mute
/ -slide
^ -natural harmonic

Hey, sorry I don't have the solo. Don't be too harsh with the comments either, this is
first tab. But if you know the solo, PLEASE send it to me and I'll put it in here. I
this same tab on Fretplay.com as well, but this one is slightly revised. Email me at

Thanks!
- kingkill33*
            
Hard to play? Try these video lessons and learn fast. | Correct




comments powered by Disqus
↑ Back to top | Tablatures and chords are parodies/interpretations of the original songs. You may use it for private study, scholarship, research or language learning purposes only