» » »

Bodies Bass tabs (ver.2)

Artists:  A B C D E F G H I J K L M N O P Q R S T U V W X Y Z # 

Bodies Bass tabs (ver.2)

Danzig
Rating:
3/5 (1 vote)

Hard to play? Try these video lessons and learn fast.
                ---------------|
---------------|
---7--55-5-----|
-0-------------|

---------------|
---------------|
---7--55-------|
-0-------3-----|

---------------|
---------------|
---7--55-5-----|
-0-------------|

---------------|
---------------|
---7--55-------|
-0-------3-----|

Just keep repeating that, its a easy song, great for beginners
            
Hard to play? Try these video lessons and learn fast. | Correct




comments powered by Disqus
↑ Back to top | Tablatures and chords are parodies/interpretations of the original songs. You may use it for private study, scholarship, research or language learning purposes only