>
 >
Anything 1

Anything 1 Guitar Tabs

Danzig - Anything 1 chords, tabs, tablatures, lyrics

Guitar lessons | Add/correct | Request | Top 50 tabs Artists:  A B C D E F G H I J K L M N O P Q R S T U V W X Y Z 0-9

Anything 1 Guitar Tabs – Danzig

CD, Sheet music, Poster

Do you like Anything 1? Share with your friends now
TabsTabs v2Tabs v3
Danzig  Anything

My favourite Danzig song! Well, here you go, I included the end solo with mine! Contact 

Tablature Legend:
~     - vibrato
PM|-| - Palm mute
?(?)  - Bend (to what is in the brackets)
p     - pull-off
h     - hammer-on
/     - slide up
\     - slide down
*     - brief note

Intro:
                                                  (x2)
e|-------------------------|-------------------------|
B|-------------------------|-------------------------|
G|-------3--------1-----1--|-------3--------1-----1--|
D|----3-----3--3-----3-----|----3-----3--3-----3-----|
A|-1-----------------------|-1-----------------------|
E|-------------------------|-------------------------|

Verse:

e|-------------------------|-------------------------|
B|-------------------------|-------------------------|
G|-------3--------1-----1--|-------3--------1-----1--|
D|----3-----3--3-----3-----|----3-----3--3-----3-----|
A|-1-----------------------|-1-----------------------|
E|-------------------------|-------------------------|

e|-------------------------|-------------------------|
B|-------------------------|-------------------------|
G|-------3--------1-----1--|-------6-----------------|
D|----3-----3--3-----3-----|----6-----6-----6-----6--|
A|-1-----------------------|-4-----------4-----4-----|
E|-------------------------|-------------------------|
Repeat (x3)
                                                  (x2)
e|-------------------------|-------------------------|
B|-------------------------|-------------------------|
G|-------3--------1-----1--|-------3--------1-----1--|
D|----3-----3--3-----3-----|----3-----3--3-----3-----|
A|-1-----------------------|-1-----------------------|
E|-------------------------|-------------------------|

e|-------------------------|-------------------------|
B|-------------------------|-------------------------|
G|-------------------------|-------------------------|
D|-------6-----------------|-------6-----------------|
A|----6-----6-----6-----6--|----6-----6-----6-----6--|
E|-4-----------4-----4-----|-4-----------4-----4-----|

e|-------------------------|-------------------------|
B|-------------------------|-------------------------|
G|-------3--------1-----1--|-------3--------1-----1--|
D|----3-----3--3-----3-----|----3-----3--3-----3-----|
A|-1-----------------------|-1-----------------------|
E|-------------------------|-------------------------|

e|-------------------------|-------------------------|
B|-------------------------|-------------------------|
G|-------------------------|-------------------------|
D|-------6-----------------|-------6-----------------|
A|----6-----6-----6-----6--|----6-----6-----6-----6--|
E|-4-----------4-----4-----|-4-----------4-----4-----|

                                                  (x3)
e|-------------------------|-------------------------|
B|-------------------------|-------------------------|
G|-------3--------1-----1--|-------------------------|
D|----3-----3--3-----3-----|-------4--------6--------|
A|-1-----------------------|----4--------6-----6-----|
E|-------------------------|-2--------4-----------4--|

                             *
e|-------------------------|----------------------|
B|-------------------------|----------------------|
G|-------3--------1-----1--|----------------------|
D|----3-----3--3-----3-----|-4---------6----------|
A|-1-----------------------|-4---------6----------|
E|-------------------------|-2---------4----------|
*Distortion comes in!

Verse II:

e|----------------------|----------------------|
B|----------------------|----------------------|
G|-------3~----1-----1--|-------3~----1-----1--|
D|----3-----------3-----|----3-----------3-----|
A|-1--------------------|-1--------------------|
E|----------------------|----------------------|

e|----------------------|------------------------|
B|----------------------|------------------------|
G|-------3~----1-----1--|-6------5-------6-------|
D|----3-----------3-----|-6------5-------6-------|
A|-1--------------------|-4------3-------4-------|
E|----------------------|------------------------|
Repeat (x4)
                                            (x2)
e|----------------------|----------------------|
B|----------------------|----------------------|
G|-------3~----1-----1--|-------3~----1-----1--|
D|----3-----------3-----|----3-----------3-----|
A|-1--------------------|-1--------------------|
E|----------------------|----------------------|

e|------------------|-------------------------|---------------------------|
B|------------------|-------------------------|---------------------------|
G|------------------|-------3--------1-----1--|-------3--------1-----1----|
D|-6--------6-------|----3-----3--3-----3-----|----3-----3--3-----3-------|
A|-6--------6-------|-1-----------------------|-1-------------------------|
E|-4--------4-------|-------------------------|---------------------------|
PM                   |----------------------------------------------------|

e|-------------------------|---------------------------|
B|-------------------------|---------------------------|
G|-------------------------|---------------------------|
D|-6--------6-----/6-------|---------------------------|
A|-6--------6-----/6-------|-3-3-3-3-3-3-3-3--3--------|
E|-4--------4-----/4-------|-1-1-1-1-1-1-1-1--1--------|
PM                          |--------------------------|

                                        (x3)
e|-----------------|-----------------------|
B|-----------------|-----------------------|
G|-------3----3----|-----------------------|
D|----3------------|-------4--------6------|
A|-1---------------|----4--------6-----6---|
E|-----------------|-2--------4------------|

e|-----------------|-------------------|
B|-----------------|-------------------|
G|-------3----3----|-------------------|
D|----3------------|-4--------6--------|
A|-1---------------|-4--------6--------|
E|-----------------|-2--------4--------|

Verse III:

Gtr I                                             (x7)
e|-------------------------|-------------------------|
B|-------------------------|-------------------------|
G|-------3--------1--------|-------------------------|
D|----3-------3-------3----|-------4--------6--------|
A|-1-----------------------|----4--------6-----6-----|
E|-------------------------|-2--------4-----------4--|
 |
 |Gtr II                                          (x7)
e|-------------------------|-------------------------|
B|-------------------------|-------------------------|
G|-------3--------1-----1--|-------------------------|
D|----3-----3--3-----3-----|-------4--------6--------|
A|-1-----------------------|----4--------6-----6-----|
E|-------------------------|-2--------4-----------4--|

Gtr I                        *
e|-------------------------|-------------------|
B|-------------------------|-------------------|
G|-------3--------1--------|-------------------|
D|----3-------3-------3----|-4--------6--------|
A|-1-----------------------|-4--------6--------|
E|-------------------------|-2--------4--------|
 |
 |Gtr II
e|-------------------------|
B|-------------------------|
G|-------3--------1-----1--|
D|----3-----3--3-----3-----|
A|-1-----------------------|
E|-------------------------|
*Distortion comes in!

Solo I:

e|----------------------------------------------|
B|-19(21)--19(21)--19(21)-----------------------|
G|--------------------------20p18-16h18p16-15-\-|
D|----------------------------------------------|
A|----------------------------------------------|
E|----------------------------------------------|

e|-----------------------------------------------------|
B|---------18----21----19----18-----------21-----------|
G|-/15--15----15----15----15----20-20(22)----20p18-----|
D|-------------------------------------------------20--|
A|-----------------------------------------------------|
E|-----------------------------------------------------|

e|----------------------------------|---------------------------------------------|
B|----------------------------------|---------------------------------18-21-18----|
G|-20(22)---20---18---17------------|-18-20-20(22)(20)p18----18-20-18----------18-|
D|-------------------------18---20--|---------------------20----------------------|
A|----------------------------------|---------------------------------------------|
E|----------------------------------|---------------------------------------------|

e|----------18----18--|-18-20-21---20---18---21---20---18h21p18-------18--------|
B|-18-21-18----21-----|-----------------------------------------21-21-----21-18-|
G|--------------------|---------------------------------------------------------|
D|--------------------|---------------------------------------------------------|
A|--------------------|---------------------------------------------------------|
E|--------------------|---------------------------------------------------------|

e|---------------------------18-18---------------------------------------|
B|---------------21-18----18---------21-18-------------------------------|
G|-20(22)(20)-18-------20------------------20(22)---20---18---17---------|
D|-----------------------------------------------------------------18----|
A|-----------------------------------------------------------------------|
E|-----------------------------------------------------------------------|

e|----------------------18-21-18-------------21-23(25)(24)(25)~~~--|
B|----------------18-21----------21-18----18-----------------------|
G|----------18-20----------------------20--------------------------|
D|----18-20--------------------------------------------------------|
A|-20--------------------------------------------------------------|
E|-----------------------------------------------------------------|End Solo

Outro:
                                         (x4)
e|-------------------|----------------------|
B|-------------------|----------------------|
G|-------3-----3--3--|----------------------|
D|----3-----3--------|-------4--------6-----|
A|-1-----------------|----4--------6-----6--|
E|-------------------|-2--------4-----------|

Solo Rhythm:
                                         (x4)
e|-------------------|----------------------|
B|-------------------|----------------------|
G|-------3-----3--3--|----------------------|
D|----3-----3--------|-------4--------6-----|
A|-1-----------------|----4--------6-----6--|
E|-------------------|-2--------4-----------|

                                (x3)
e|-------------------|-------------|
B|-------------------|-------------|
G|-------3-----3--3--|-------------|
D|----3-----3--------|-4-----6-----|
A|-1-----------------|-4-----6-----|
E|-------------------|-2-----4-----|

e|-------------------|---------------------------------------|
B|-------------------|---------------------------------------|
G|-------3-----3--3--|---------------------------------------|
D|----3-----3--------|-4--------------6----------------------|
A|-1-----------------|-4--------------6----------------------|
E|-------------------|-2--------------4----------------------|

Solo II:

e|----------------------------------|------------------------------|
B|----------------------------------|------------------------6-9~--|
G|---6---6-8-6-8(10)--8-6-8(10)p6---|---6---6-8-6-8(10)--8-6-------|
D|-8---8--------------------------8-|-8---8------------------------|
A|----------------------------------|------------------------------|
E|----------------------------------|------------------------------|

e|-------------------------------|------------------------------------------------------|
B|-16-18~--18~--18~-18~-18~------|-16-18~--18~-18-21p18----21p18----18-21(23)-21-21(23)-|
G|--------------------------15\--|----------------------20-------20---------------------|
D|-------------------------------|------------------------------------------------------|
A|-------------------------------|------------------------------------------------------|
E|-------------------------------|------------------------------------------------------|

e|-18~---18~---18~---18~---18~---18~-------|
B|-----------------------------------------|
G|-----------------------------------------|
D|-----------------------------------------|
A|-----------------------------------------|
E|-----------------------------------------|

e|-18~---18~---18~---18~---|----------------------------------------------------------|
B|-------------------------|----------------------------------------------------------|
G|-------------------------|-18-18-18-18-18-18-18-18-17-17-17-17-17-17-17-17----------|
D|-------------------------|----------------------------------------------------------|
A|-------------------------|----------------------------------------------------------|
E|-------------------------|----------------------------------------------------------|
e|-18~---18~---18~---18~---|----------------------------------------------------------|
B|-------------------------|----------------------------------------------------------|
G|-------------------------|-18-18-18-18-18-18-18-18-17-17-17-17-17-17-17-17----------|
D|-------------------------|-------------------------------------------------20-18----|
A|-------------------------|----------------------------------------------------------|
E|-------------------------|----------------------------------------------------------|

e|-18~---18~---18~---|-------------------------------------|
B|-------------------|-------------------------------------|
G|-------------------|-----18--20(22)-(21)-(22)~~~~~~~~~---|
D|-------------------|-20----------------------------------|
A|-------------------|-------------------------------------|
E|-------------------|-------------------------------------|

Enjoy!





Comments


Popular Danzig tabs & chords
Black Angel, White Angel Bass Tabs
How The Gods Kill Bass Tabs
Belly Of The Beast 1 Tabs
Circle Of Snakes 1 Tabs
Dominion Tabs
God Of Light Tabs
Going Down To Die Tabs
Her Black Wings 1 Tabs
Not Of This World Tabs
Wicked Pussycat Tabs


Song lyrics



↑ Back to top | Tablatures and chords are parodies/interpretations of the original songs. You may use it for private study, scholarship, research or language learning purposes only
© 2014 AZChords.com Contact us | Privacy policy | DMCA | Add/correct tabs | Request tabs | Top 50 tabs