» » »

Danyo Cummings, You Dont Miss Your Water Tabs (ver.1)

Artists:  A B C D E F G H I J K L M N O P Q R S T U V W X Y Z # 

You Dont Miss Your Water Tabs (ver.1)

Danyo Cummings Tabs
 Rating:
4/5 (4 votes)
You Dont Miss Your Water lessons Tabs too difficult? Try these video lessons and learn fast
                -------------------------------------------------------------------------------
                  You Don't Miss YOur Water - Danyo Cummings
-------------------------------------------------------------------------------

Well...it sounds just fine on the 4th fret but if you try to play along then it will 
out of tune or low...so i suggest you tune your guitar up a bit like a 1/3 step...its weird 
it sounds perfect...

Tuning: Standard

Capo on 4th Fret

INTRO: Notes relative to Capo

e|----------0---/5-3-----/3-1-----1-0--0h1p0-|---------|-----------------------|
B|------0h1---1------0h1------0h1------------|-3-1-0-1-|-----------------------|
G|---2---------------------------------------|---------|-------X2--------------|
D|-------------------------------------------|---only--|-----------------------|
A|-------------------------------------------|---first-|-----------------------|
E|-------------------------------------------|---time--|-----------------------|

VERSE/CHORUS: Chords relative to capo


Am  G(Bar Chord)  F  E


e|--x-x--0-0-X-x-0-0--x-x-3-3-x-x-3-3--x-x-1-1-x-x-1-1-|-0-0-0-0------x-x-----x-x------|
B|--x-x--1-1-x-x-1-1--x-x-3-3-x-x-3-3--x-x-1-1-x-x-1-1-|-0-0-0-0------x-x-0-0-x-x-0-0--|
G|--x-x--2-2-x-x-2-2--x-x-4-4-x-x-4-4--x-x-2-2-x-x-2-2-|-1-1-1-1--OR--x-x-1-1-x-x-1-1--|
D|--x-x--2-2-x-x-2-2--x-x-5-5-x-x-5-5--x-x-3-3-x-x-3-3-|-2-2-2-2------x-x-2-2-x-x-2-2--|
A|--x-x--0-0-x-x-0-0--x-x-5-x-x-x-5-5--x-x-3-3-x-x-3-3-|-2-2-2-2------x-x-2-2-x-x-2-2--|
E|--x-x------x-x------x-x-3-3-x-x-3-3--x-x-1-1-x-x-1-1-|-0-0-0-0------x-x-----x-x------|


| /  slide up
| \  slide down
| h  hammer-on
| p  pull-off
| ~  vibrato
| +  harmonic
| x  Mute note
===============================================================================
            
Submit corrections

comments powered by Disqus
↑ Back to top | Danyo Cummings Tabs for You Dont Miss Your Water. Lyrics for acoustic guitar and electric guitar. Tablatures and chords are parodies/interpretations of the original songs. You may use it for private study, scholarship, research or language learning purposes only