» » »

Dan Wilson, Cry Tabs (ver.1)

Artists:  A B C D E F G H I J K L M N O P Q R S T U V W X Y Z # 

Cry Tabs (ver.1)

Dan Wilson Tabs
 Rating:
4.2/5 (5 votes)
Cry lessons Tabs too difficult? Try these video lessons and learn fast
                


INTRO
=====

    | Am /   /   /   | Am /   /   /   | G  /   /   /   | F  /   /   /   |


VERSE 1
=======

    | Am      /       /       /       | Am      /       /       /       |
      One more long and lonely night    left here on my own

    | G       /       /       /       | F       /       /       /       |
      Do you wanna make me wanna cry?

    | Am      /       /       /       | Am      /       /       /       |
      Lost my baby in the fight       I don't know where you've gone

    | G       /       /       /       | F       /       /       /       |
      Do you wanna make me wanna cry?


CHORUS
======

    | C       /       /       /       | G       /       /       /       |
      Don't you wanna make me feel like I'm a thousand stories high?

    | Am      /       /       /       | F       /       /       /       |
      Don't you wanna make me feel I'll never fail I'll never die?

    | C       /       /       /       | G       /       /       /       |
      Don't you wanna set me free we'll override the history

    | Am      /       /       /       | F       /       /       /       |
      Turn to find our destiny and never turn away


INTERLUDE
=========

    Chords:
    | Am /   /   /   | Am /   /   /   | G  /   /   /   | F  /   /   /   |

    Guitar melody:
   e|----------------|--/10-8-10-10b12|8h10--8---------|---/8-10-8-10-8-|
   B|----------------|----------------|----------------|----------------|
   G|----------------|----------------|----------------|----------------|
   D|----------------|----------------|----------------|----------------|
   A|----------------|----------------|----------------|----------------|
   E|----------------|----------------|----------------|----------------|


VERSE 2
=======

    | Am      /       /       /       | Am      /       /       /       |
  The devil was an angel once           beautiful like you

    | G       /       /       /       | F       /       /       /       |
      Do you wanna make me wanna cry?

    | Am      /       /       /       | Am      /       /       /       |
      I don't care how far you fall I'll catch you when you do

    | G       /       /       /       | F       /       /       /       |
      Do you wanna make me wanna cry?


PRECHORUS
=========

    | C  /   /   /   | G  /   /   /   | C  /   /   /   | F  /   /   /   |
So I close       my eyes       try to hold my head up high

    | Am /   /   /   | G  /   /   /   | F  /   /   /   | Dm /   /   /   |
And I pray       my soul      not to break


CHORUS
======

    | C       /       /       /       | G       /       /       /       |
      Don't you wanna make me feel like I'm a thousand stories high?

    | Am      /       /       /       | F       /       /       /       |
      Don't you wanna make me feel I'll never fail I'll never die?

    | C       /       /       /       | G       /       /       /       |
      Don't you wanna set me free we'll override the history

    | Am      /       /       /       | F       /       /       /       |
      Turn to find our destiny and never turn away

    | Em      /       /       /       | Dm      /       /       /       |
      Do you really wanna say goodbye?

    | Em      /       Dm      /       |
      Do you wanna make me wanna cry?


GUITAR SOLO
===========

   Solo is over 12 bars of verse chords.

   bh = bend and hold

   e|-0-----0------0------0-----0-----|0-------0-0----0-------0-------0-|
   B|/10-------10--10-------10--10/12-|12bh13----13---13br12--10---10---|
   G|---------------------------------|---------------------------------|
   D|---------------------------------|---------------------------------|
   A|---------------------------------|---------------------------------|
   E|---------------------------------|---------------------------------|

   e|-0--------0----0-------0-------0-|-0----0-----0----0-----0------0--|
   B|-10bh12---12---12br10--8----8----|/10-----10--10-----10--10--10----|
   G|---------------------------------|---------------------------------|
   D|---------------------------------|---------------------------------|
   A|---------------------------------|---------------------------------|
   E|---------------------------------|---------------------------------|

   e|-0----0------0-----0-----0-----0-|0-------0----0-0-------0---0---0-|
   B|-10------10--10------10--10/12---|12bh13----13---13br12--10---10---|
   G|---------------------------------|---------------------------------|
   D|---------------------------------|---------------------------------|
   A|---------------------------------|---------------------------------|
   E|---------------------------------|---------------------------------|

   e|-0-----0-------0-------0------0--|-0----0-----0----0----0---0---0--|
   B|-10h12---12----12------10-----8--|/10-----10--10-------/5---5---5--|
   G|---------------------------------|---------------------------------|
   D|---------------------------------|---------------------------------|
   A|---------------------------------|---------------------------------|
   E|---------------------------------|---------------------------------|

   e|-0---0---0---0-----0------0------|-0------0------0-----0-----0-----|
   B|-5---5---5---5----\3------3------|-3-----\1------1-----0-----0-----|
   G|---------------------------------|---------------------------------|
   D|---------------------------------|---------------------------------|
   A|---------------------------------|---------------------------------|
   E|---------------------------------|---------------------------------|

   e|---------------------------------|---------------------------------|-----|
   B|---------------------------------|-0h1p0--0h2p0--0h1p0--0h2p0-0-1-3|-5---|
   G|-0h2p0--0h2p0-0h2p0-0h2p0-0h2----|---------------------------------|-----|
   D|---------------------------------|---------------------------------|-----|
   A|---------------------------------|---------------------------------|-----|
   E|---------------------------------|---------------------------------|-----|


CHORUS
======

    | C       /       /       /       | G       /       /       /       |
      Don't you wanna make me feel like I'm a thousand stories high?

    | Am      /       /       /       | F       /       /       /       |
      Don't you wanna make me feel I'll never fail no matter why?

    | C       /       /       /       | G       /       /       /       |
      Don't you wanna set me free we'll override the history

    | Am      /       /       /       | F       /       /       /       |
      Turn to find our destiny and never turn away from me

    | C       /       /       /       | G       /       /       /       |
      Don't you wanna make me feel like I'm a thousand stories high?

    | Am      /       /       /       | F       /       /       /       |
      Don't you wanna make me feel I'll never fail I'll never die?

    | C       /       /       /       | G       /       /       /       |
      Don't you wanna set me free we'll override the history

    | Am      /       /       /       | F       /       /       /       |
      Turn to find our destiny and never turn away

    | Em      /       /       /       | Dm      /       /       /       |
      Do you really wanna say goodbye?

    | Em      /       Dm      /       |
      Do you wanna make me wanna cry?


OUTRO
=====

    Guitar ad lib a la guitar solo.

    | Am /   /   /   | Am /   /   /   | G  /   /   /   | F  /   /   /   |
                                                       Do you wanna make wanna...

    | Am /   /   /   | Am /   /   /   | G  /   /   /   | F  /   /   /   |
   ...cry?

    | F  /   /   /   | F  /   /   /   | F              |
            
Submit corrections

comments powered by Disqus
↑ Back to top | Dan Wilson Tabs for Cry. Lyrics for acoustic guitar and electric guitar. Tablatures and chords are parodies/interpretations of the original songs. You may use it for private study, scholarship, research or language learning purposes only