>
 >
The Invisible Man

The Invisible Man Guitar Tabs

Danny Michel - The Invisible Man chords, tabs, tablatures, lyrics

Guitar lessons | Add/correct | Request | Top 50 tabs Artists:  A B C D E F G H I J K L M N O P Q R S T U V W X Y Z 0-9

The Invisible Man Guitar Tabs – Danny Michel

CD, Sheet music, Poster

Do you like The Invisible Man? Share with your friends now
Tabs

This is my first ever tab. I heard this guy play and as he played he bounced a little. 

RIFF 1

E-------------0-------------------|
B-------------0-------------------|
G-----T-------2-----T----------2--|
D-----A-------1-----A-------1-----|
A-----P--1h2--2-----P--3p2--------|
E---0---------0---0---------------|

E---\0--|
B---\0--|
G---\2--|
D---\1--|
A---\2--|
E---\0--|

 Slide Down

RIFF 1

If I stopped combing my hair
If I stopped shaving my face

  E5  F#5   G5       A5
Would you notice or care
  B5                 B5 B5
Would it just be a waste

RIFF 1

If I stopped changing my clothes
If I stopped watching my weight

  E5  F#5   G5      A5
How far do I got to go
  B5                 B5 B5 B5
Just what do I have to say

                   C7 B7
I'm the invisible man

  Am                          B7
Everybody shakes my hand but you

                   C7 B7
I'm the invisible man

  Am                         B7 Em
But the only body I want is you

E----6h7--6--5---------------------------------|
B---------------8--7p5h7--5--8--7p5--7--5--~5--|
G----------------------------------------------|
D----------------------------------------------|
A----------------------------------------------|
E-0--------------------------------------------|

RIFF 1

I'm walking slowly with grace
I hit a couple home runs

E-------------------6--7--8--7---6--7--8--7--|
B--------------------------------------------|
G--------------------------------------------|
D--------------------------------------------|
A--------------------------------------------|
E--------------------------------------------|

  E5     F#5  G5          A5
I stand right up in your face
  B5                         B5 B5
Still I don't block out the sun

RIFF 1

So I go out on a limb
I get all true blue and sincere

  E5   F#5   G5         A5
But I don't show up on film
  B5                   B5 B5 B5
I can't be seen in a mirror

                   C7 B7
I'm the invisible man

  Am                              B7
But everybody shakes my hand but you

                   C7 B7
I'm the invisible man

  Am                         B7
But the only body I want is you

  Am                               Em
Some would sneak in ladies locker rooms
  Am                               Em
Or armoured trucks chock full of jewels
  Am                               Em
But I keep my hands where you can see them
  F#m
Well any fool can see them
  B7
Why can't you see them

E-------------------------------------------|
B-------------------------------------------|
G-------------------------------------------|
D----------------------------1--2--1--------|
A----------------------2--3-----------3--2--|
E-------------------------------------------|

SOLO

E---------------------------------------14---------------------------------14--15--|
B---~12--12\--12h13--12------12h13--12------11h12-------------11--~11--11----------|
G------------------------14------------------------12--10--9-----------------------|
D----------------------------------------------------------------------------------|
A----------------------------------------------------------------------------------|
E----------------------------------------------------------------------------------|

E---14-------------------------------------------------------------|
B-------13--12--------------------12--11---------------------------|
G---------------12--11--9--11--9----------14--12--11---------------|
D-----------------------------------------------------15--14--14\--|
A------------------------------------------------------------------|
E------------------------------------------------------------------|

RIFF 1
I know when I'm beat
I know when to stay down

  E5   F#5   G5             A5
You put floppy shoes on my feet
  B5              B5 B5 B5
And a big happy frown
                   C7 B7
I'm the invisible man
Am                       B7
Try and catch me if you can
                   C7 B7
I'm the invisible man
Am                          B7
I'm right behind you, my friend
               C7 B7
The invisible man
Am                            B7
Everybody shakes my hand but you
                  C7 B7
I'm the invisble man
Am                           B7 Em
But the only body I want is you





Comments


Popular Danny Michel tabs & chords
Binary Star Chords
Coalmine Chords
Newton's Apple Chords
Tennessee Tobacco Chords
Toledo Chords
Coalmine Ukulele
Newtons Apple Ukulele
River On The Moon Ukulele
Tennessee Tobacco Ukulele
Toledo Ukulele


Song lyrics



↑ Back to top | Tablatures and chords are parodies/interpretations of the original songs. You may use it for private study, scholarship, research or language learning purposes only
© 2014 AZChords.com Contact us | Privacy policy | DMCA | Add/correct tabs | Request tabs | Top 50 tabs