» » »

This Is Halloween Tabs (ver.4)

Artists:  A B C D E F G H I J K L M N O P Q R S T U V W X Y Z # 

This Is Halloween Tabs (ver.4)

Danny Elfman
Rating:
3/5 (1 vote)

Hard to play? Try these video lessons and learn fast.
                This is MY tab for This is halloween. If you have a problem with it, then you can listen
it and figure it out yourself. it is really hard to figure out. Especially by ear
to the violins, flutes, clarinets, oboes, etc. Don't slander my tab or me. If you do, 

I used the song.........

This is Halloween by The Citizens of Halloween (on the NBC in 3D soundtrack)
I followed the Clarinets in the song.

e|---------------------------------------------------|
B|-8-8-8--8h9-------------------12-------------------|
G|------------10---10-10--10h12----12h13--10--13--12-|
D|---------------------------------------------------|
A|---------------------------------------------------|
E|---------------------------------------------------|


Boys and Girls of Every Age......
e|---------------------------------------------------|
B|---------------------------------------------------|
G|-12-12-12-12-12h13--10-10--10-10-10-10-10h12-13-12-|
D|---------------------------------------------------|
A|---------------------------------------------------|
E|---------------------------------------------------|

Come With Us and You Will See......
e|-------------------------------------------------|
B|-------------11----------------------------------|
G|-12-12-12-13----13-12-10-10-10-10-12-13-12-10/16-|
D|-------------------------------------------------|
A|-------------------------------------------------|
E|-------------------------------------------------|

This Is halloween...............Pumpkins Scream......
e|----------------------------------------------------|
B|-11-11-11-9-8---11-11-11-9-8--9------------------10-|
G|--------------------------------10------------10----|
D|-----------------------------------10-------8-------|
A|--------------------------------------11-10---------|
E|----------------------------------------------------|


e|---------------------------------------------------|
B|-12-12-12-10-9--12-12-12-12-12-10-9----------------|
G|---------------------------------------------------|
D|---------------------------------------------------|
A|---------------------------------------------------|
E|---------------------------------------------------|
            
Hard to play? Try these video lessons and learn fast. | Correct




comments powered by Disqus
↑ Back to top | Tablatures and chords are parodies/interpretations of the original songs. You may use it for private study, scholarship, research or language learning purposes only