>
 >
Unnatural Progression

Unnatural Progression Guitar Tabs

Dan Mangan - Unnatural Progression chords, tabs, tablatures, lyrics

Guitar lessons | Add/correct | Request | Top 50 tabs Artists:  A B C D E F G H I J K L M N O P Q R S T U V W X Y Z 0-9

Unnatural Progression Guitar Tabs – Dan Mangan

CD, Sheet music, Poster

Do you like Unnatural Progression? Share with your friends now
Tabs
-------------------------------------------------------------------------------
-------------------------------------------------------------------------------

Tuning: DAEGBe

This is my personal interpretation of what I heard.
I don't know if this is exactly how Dan plays it, but it sounds right to me.
Don't forget to check the tuning.


Intro and Verse
e|-----------------------------------------------------------------|
B|-----------------------------------------------------------------|
G|-----------------------------------------------------------------|
E|---3---3---3---3---2---3---2---3---3---3---3---3---2---3---2---3-|
A|---2---2---2---2---0---2---0---2---2---2---2---2---0---2---0---2-|
D|-0---0---0---0---0---0---0---0---2---2---2---2---2---0---2---0---|


Chorus
e|-----------------------------------------------------------------|
B|-----------------------------------------------------------------|
G|-----------------------------------------------------------------|
E|---5---5---5---5-------------------5---5---5---5---10--9---10--5-|
A|---5---5---5---5---4---5---7---7---5---5---5---5---9---7---9---5-|
D|-5-5-5-5-5-5-5-5-0-0-0-0-0-0-0-0-5-5-5-5-5-5-5-5-9-9-x-7-x-9-x-5-|


e|-------------------------------------------------|
B|-------------------------------------------------|
G|-------------------------------------------------| Third time
E|---5---5---5---5-------------------5---5---5---5-| through go
A|---5---5---5---5---4---5---7---7---5---5---5---5-| to Outro.
D|-5-5-5-5-5-5-5-5-0-0-0-0-0-0-0-0-5-5-5-5-5-5-5-5-|

                                         
e|-------------------------------------------------|
B|-------------------------------------------------|
G|-------------------------------------------------|
E|---10--10--10--10--9---9---9---7~----------------|
A|---9---9---9---9---7---7---7---5~----------------|
D|-9---9---9---9---7---7---7---7---5~--------------|


Outro
e|-----------------------------------------------------------------|
B|-----------------------------------------------------------------|
G|-----------------------------------------------------------------|
E|---10--10--10--10--9---9---9---9---7---7---7---7---9---9---9---9-| x6
A|---9---9---9---9---7---7---7---7---5---5---5---5---7---7---7---7-|
D|-9---9---9---9---7---7---7---7---5---5---5---5---7---7---7---7---|


        e|----|
End on  B|----|
slow    G|----|
strum   E|-10-|
  of:   A|-9--|
        D|-9--|




(Play Intro) x4

(Verse 1)
Was a soldier coming home
Was to bring my body back 
Wasn't sure about the darkness 
Heart was rambling on like any day 
Just like any day

(Chorus)
If I was to write,
I don't mind, I don't mind
I might forget about it 
Though my day has come it's already gone 
Some would say it came too soon. 

(Play Intro) x2

(Verse 2)
Was a light bulb burning out. 
Waiting for my mother's touch. 
She wasn't there amid the thunder, 
I'll remember how it used to be. 
How it used to be. 

(Chorus)
If I was to write, 
I don't mind, I might forget about it. 
Though my day has come it's already gone. 
I just need to get home. 

(Play Intro) x2
(Play Chorus)

(Outro)
Was it something I said? 
Was it something I said, oh Lord?
Was it something I said?
Was it something I said, oh Lord?
Was it something I said?





Comments


Popular Dan Mangan tabs & chords
Basket Chords
Et Les Mots Croises 1 Chords
Et Les Mots Croisses Chords
Road Regrets Chords
Rows Of Houses 2 Chords
Set The Sail Chords
The Indie Queens Are Waiting Chords
The Indie Queens Are Waiting 1 Chords
Leaves Trees Forest Ukulele
The Indie Queens Are Waiting Ukulele


Song lyrics



↑ Back to top | Tablatures and chords are parodies/interpretations of the original songs. You may use it for private study, scholarship, research or language learning purposes only
© 2014 AZChords.com Contact us | Privacy policy | DMCA | Add/correct tabs | Request tabs | Top 50 tabs