» » »

Dan Mangan, The Indie Queens Are Waiting Chords (ver.1)

Artists:  A B C D E F G H I J K L M N O P Q R S T U V W X Y Z # 

The Indie Queens Are Waiting Chords (ver.1)

Dan Mangan Tabs
Rating:
4/5 (3 votes)
The Indie Queens Are Waiting lessons Tabs too difficult? Try these video lessons and learn fast
                
The other tab for this is quite good, but one chord was wrong,
and the bridge wasn't quite right.

The whole song should be played with a down-strum
with the index-fingernail on the off-beat
instead of finger-picking the off-beat.

    D               F#m             Em              A7
e|--------------------------------------------------------------------|
B|----3---3---3---3---2---2---2---2---0---0---0---0---2---2---2---2---|
G|----2---2---2---2---2---2---2---2---0---0---0---0---0---0---0---0---|
D|--0---0---0---0-----------------------------------------------------|
A|--------------------------------------------------0---0---0---0-----|
E|------------------2---2---2---2---0---0---0---0---------------------|


D                                   F#m
Down the road and on the right-hand side
Em                                  A7
There's a place I sometimes like to dine
D                           F#m
Coffee refills far as I can see
Em             A7
I'll be waking Are you watching me?
D                 F#m
Are you watching, are you?
Em                A7
Are you watching, Or just waiting to see?


   G               D               Em              F#
e|-----------------------------------------------------------------|
B|---3---3---3---3---3---3---3---3---0---0---0---0---2---2---2---2-|
G|---0---0---0---0---2---2---2---2---0---0---0---0---3---3---3---3-|
D|-----------------0---0---0---0-----------------------------------|
A|-----------------------------------------------------------------|
E|-3---3---3---3-------------------0---0---0---0---2---2---2---2---|

G                  D
That your days are numbered?
Em                 F#
'Cause my days are numbered too
G                D
Are we cool now? Are we cool now?
Em               F#
Are we cool now? Are we cool?



D                            F#m
Bus down to the local record store
Em                                A7
Buy something to make you like me more
D                                F#m
Indie queens and tatty east-side punks
Em                 A7
They are listening Always waiting
D                 F#m
Are you watching, are you?
Em               A7 
Are you watching or just waiting to see


G                  D
That your days are numbered?
Em                 F#
'Cause my days are numbered too
G                D
Are we cool now? Are we cool now?
Em               F#
Are we cool now? Are we cool?

   Bm              ?               ?             F#
e|---2---2---2---2---0---0---2-20----0---0---0---0---2---2---2---2-|
B|---3---3---3---3---5---5---5-5--5--5---5---5---5---2---2---2---2-|
G|---4---4---4---4---4---4---4-4-4---4---4---4---4---3---3---3---3-|
D|---4---4---4---4---4---4---4-4-----4---4---4---4---4---4---4---4-|
A|-2---2---2---2---0---0---0---------------------------------------|
E|---------------------------------3---3---3---3---2---2---2---2---|

If you are having trouble with the fast picking part,
then you could just leave it out, and play it like this.
e|...---0---0---2---2---0-...
B|...---5---5---5---5---5-...
G|...---4---4---4---4---4-...
D|...---4---4---4---4---4-...
A|...-0---0---0---0-------...
E|...-----------------3---...



D                             F#m
I'm sorry that I brought it up
Em                           A7
It's not nice to p**s you off
D                   F#m
And I know, I know, I know
Em                            A7
That I was poking And sort of prodding
D                  F#m
And kind of hoping And always watching
Em             A7
For a reaction A reaction
D          F#m
A reaction A reaction
Em                A7                 D A Em
Are you watching? Watching, are you watching?

A7 (Slow down-strum)

Or just waiting to see?

   Bb7
e|-----------------6~-|
B|------------6~------|
G|---------7~---------|
D|------6~------------|
A|----8~--------------|
E|-6~-----------------|

The end
            

comments powered by Disqus
↑ Back to top | Dan Mangan Chords for The Indie Queens Are Waiting. Lyrics for acoustic guitar and electric guitar. Tablatures and chords are parodies/interpretations of the original songs. You may use it for private study, scholarship, research or language learning purposes only