» » »

Dan Mangan, Sold Tabs (ver.1)

Artists:  A B C D E F G H I J K L M N O P Q R S T U V W X Y Z # 

Sold Tabs (ver.1)

Dan Mangan Tabs
Rating:
0/5 (0 votes)
Sold lessons Tabs too difficult? Try these video lessons and learn fast
                
~ = let ring

Chords:
   E  Ab7 C#m  A
e--0---4---4---5------------|
B--0---4---5---5------------|
G--1---5---6---6------------|
D--2---6---6---7------------|
A--2---6---4---7------------|
E--0---4-------5------------|

Intro - the chords are what the rhythm plays, to help you follow along:
  E     Ab7     C#m             A             E           Ab7
e----------------------------------------------------------------|
B----------------------------------------------------------------|
G-------------------------------------6p5h6\4-4------------------|
D--2~----4----------2--4/6--4h6-7----7------------4/6-4-2-4/6----|
A------------3---4---------------------------------------------6-|
E----------------------------------------------------------------|


   C#m            A
e-----------------------5---7---9----12-11---0----|
B--/9~--7-----------------------------0--0--12----|
G---------9p8-8-----6~----------------------------|
D------------9--9-7-------------------------------|
A-------------------------------------------------|
E-------------------------------------------------|

Verse/Chorus:
*this progression is played throughout the entire song*
E   Ab7  C#m   A


Interlude (the little part after the chorus):
 E            Ab7  C#m           A
e-------------------------------------------------|
B----0------------------0-------------------------|
G------h2-1---------------h2-1--------------------|
D--2--------2-2/4-----2--------2-2/4-\2-----------|
A----------------------------------------4-\2-----|
E-------------------------------------------------|

after 1st chorus:
 E            Ab7    C#m        A
e-------------------------------------------------|
B----0---------------------------------5\4/5------|
G------h2-1-----------------------4-6-------------|
D--2--------2-2/4-----2-----2-4-6-----------------|
A-------------------------4-----------------------|
E-------------------------------------------------|


after 2nd chorus:
 E            Ab7  C#m            A
e-------------------------------------------------|
B----0------------------0-------------------------|
G------h2-1---------------h2-1--------------------|
D--2--------2-2/4-----2--------2---6b7~-----------|
A-------------------------------------------------|
E-------------------------------------------------|
            

comments powered by Disqus
↑ Back to top | Dan Mangan Tabs for Sold. Lyrics for acoustic guitar and electric guitar. Tablatures and chords are parodies/interpretations of the original songs. You may use it for private study, scholarship, research or language learning purposes only