» » »

About As Helpful As You Can Be Without Being Any Help At All Tabs (ver.1)

Artists:  A B C D E F G H I J K L M N O P Q R S T U V W X Y Z # 

About As Helpful As You Can Be Without Being Any Help At All Tabs (ver.1)

Dan Mangan
Rating:
0/5 (0 votes)

Hard to play? Try these video lessons and learn fast.
                
/ = slide up
\ = slide down
~ = let ring

Standard Tuning

** 3/4 TIMING ** every chord shown represents one full bar

This is the bass riff during the first verse
   C    F    F     G      Am    Em     F     G
e------------------------------------------------|
B------------------------------------------------|
G------------------------------------------------|
D------------------------------------------------|
A--3------------0-----0---0--------------0-----2-|
E-------1-----1---1-3---3-------0------1---1-3---|


C           F          F
Both feet together
G         Am          Em
Slowly progressing
F         G
Always in time
C               F         F
Don't count the feathers
G              Am      Em
Just count the wings
F        G
Everyday counting
C             F         F
Everything's changing
  G         Am         Em
I almost forgot it
    F        G
But then I remembered


(Break)
   C     F     F     G    Am    Em     F     G
e--------------------------------------------------|
B------------------0-1---0-1---0-1---0-1-0---------|
G--0-----0-----0-2-----2-----2-----2-------2-0-----|
D----2-3---2-3---------------------------------2-3-|
A--------------------------------------------------|
E--------------------------------------------------|

   C     F     F     G    Am    Em     F     G
e--------------------------------------------------|
B------------------0-1---0-1---0-1---0-/5~--\3~----|
G--0-----0-----0-2-----2-----2-----2---------------|
D----2-3---2-3-------------------------------------|
A--------------------------------------------------|
E--------------------------------------------------|

      C             F         F
I was thrown in the boat
G           Am       Em
Cast out to sea
F                    G
Friendly with waves
           C             F       F
There were sharks below
G          Am       Em
Hungry for me
     F          G
So I dangled my leg


(Break)

      C         F        F
I lit up like a match
          G        Am      Em
Because i bled gasoline
       F           G
Made a torch of myself
          C             F      F
Until the moon was mine
G             Am        Em
Stars made of me
      F           G
How I lit up that sky


(Break)x2


C           F          F
Both feet together
G         Am          Em
Slowly progressing
F         G
Always in time
C               F         F
Don't count the feathers
G              Am      Em
Just count the wings
F        G
Everyday counting
C             F         F
Everything's changing
  G         Am         Em
I almost forgot it
    F        G
But then I remembered
            
Hard to play? Try these video lessons and learn fast. | Correct




comments powered by Disqus
↑ Back to top | Tablatures and chords are parodies/interpretations of the original songs. You may use it for private study, scholarship, research or language learning purposes only