» » »

We Sweat Blood Tabs (ver.1)

Artists:  A B C D E F G H I J K L M N O P Q R S T U V W X Y Z # 

We Sweat Blood Tabs (ver.1)

Danko Jones
Rating:
0/5 (0 votes)

Hard to play? Try these video lessons and learn fast.
                This is the title song of the new album, and man this rocks

figure out the timing yourself

Main Riff (intro/chorus) ---> Repeat as necessary
-------------7b8--------------------7b8------------------7b8---------------------------------------------
----9-9-9\\\-----7-9-----9-9-9\\\---------7-9---9-9-9\\\--------7-9-----12-12-12\\\--10-10-10\\\---------
----9-9-9\\\----9--------9-9-9\\\-------9-------9-9-9\\\------9---------12-12-12\\\--10-10-10\\\---------
----7-7-7\\\-------------7-7-7\\\---------------7-7-7\\\----------------10-10-10\\\--8--8--8-\\\---------
       slide down                                                            



End Main Riff (intro/chorus)

-------------------------
-------------------------
-------------------------
-----9\\\----------------
-----9\\\----------------
-----7\\\----------------





Verse

--------------------------------------------------
--------------------------------------------------
--------------------------------------------------
-----9\\\-----------------------------------------
-----9\\\-----------------------------------------
-----7\\\-----------------------------------------
    slide all the way down

Bridge:

-----9-9-9-9-(repeat as necessary)---7-7---9\\\------------------------
-------------------------------------7-7---9\\\------------------------
-------------------------------------5-5---7\\\------------------------

Ending:

---------------------------------------------
---------------------------------------------
---------------------------------------------
--9\\\--9\\\--9\\\--12\\\--10\\\---9\\\\\\\\-
--9\\\--9\\\--9\\\--12\\\--10\\\---9\\\\\\\\-
--7\\\--7\\\--7\\\--10\\\--8-\\\---7\\\\\\\\-
            
Hard to play? Try these video lessons and learn fast. | Correct




comments powered by Disqus
↑ Back to top | Tablatures and chords are parodies/interpretations of the original songs. You may use it for private study, scholarship, research or language learning purposes only