>
 >
The Sore Loser

The Sore Loser Guitar Tabs

Danko Jones - The Sore Loser chords, tabs, tablatures, lyrics

Guitar lessons | Add/correct | Request | Top 50 tabs Artists:  A B C D E F G H I J K L M N O P Q R S T U V W X Y Z 0-9

The Sore Loser Guitar Tabs – Danko Jones

CD, Sheet music, Poster

Do you like The Sore Loser? Share with your friends now
Tabs
E||-----------------------|----------------------|-----------------------|
B||-----------------------|----------------------|-----------------------|
G||-----------------------|--7-------------------|-----------------------|
D||--7--9-----------7--9--|--7--9----------------|--7--9-----------7--9--|
A||--7--9-----------7--7--|--5--7----------------|--7--9-----------7--7--|
E||--5--7-----------5--7--|-----7----------------|--5--7-----------5--7--|


----------------------|-----------------------|----------------------|
----------------------|-----------------------|----------------------|
--7-------------------|-----------------------|--7-------------------|
--7--9----------------|--7--9-----------7--9--|--7--9----------------|
--5--7----------------|--7--9-----------7--7--|--5--7----------------|
-----7----------------|--5--7-----------5--7--|-----7----------------|


-----------------------|----------------------|----------------------------|
-----------------------|----------------------|----------------------------|
-----------------------|--7-------------------|--7---------7---------------|
--7--9-----------7--9--|--7--9----------------|--7--9-9-9--7--9-9-9--7--9--|
--7--9-----------7--7--|--5--7----------------|--5--9-9-9--5--9-9-9--7--7--|
--5--7-----------5--7--|-----7----------------|-----7-7-7-----7-7-7--5--7--|


----------------------|----------------------------|----------------------|
----------------------|----------------------------|----------------------|
--7-------------------|--7---------7---------------|--7-------------------|
--7--9----------------|--7--9-9-9--7--9-9-9--7--9--|--7--9----------------|
--5--7----------------|--5--9-9-9--5--9-9-9--7--7--|--5--7----------------|
-----7----------------|-----7-7-7-----7-7-7--5--7--|-----7----------------|


----------------------------|----------------------|
----------------------------|----------------------|
--7---------7---------------|--7-------------------|
--7--9-9-9--7--9-9-9--7--9--|--7--9----------------|
--5--9-9-9--5--9-9-9--7--7--|--5--7----------------|
-----7-7-7-----7-7-7--5--7--|-----7----------------|


----------------------------|-----------------------|--------------------------|
----------------------------|-----------------------|--------------------------|
--7---------7---------------|--7--------------------|--------------9--9--9--9--|
--7--9-9-9--7--9-9-9--7--9--|--7--9-------2----4----|--9--9--9--9--9--9--9--9--|
--5--9-9-9--5--9-9-9--7--7--|--5--7-------2----4----|--9--9--9--9--7--7--7--7--|
-----7-7-7-----7-7-7--5--7--|-----7-------0----2----|--7--7--7--7--------------|


--------------------------|--------------------------|
--------------------------|--------------------------|
--7--7--7--7--------------|--------------------------|
--7--7--7--7--9--9--9--9--|--7--7--7--7--7--7--7--7--|
--5--5--5--5--9--9--9--9--|--7--7--7--7--7--7--7--7--|
--------------7--7--7--7--|--5--5--5--5--5--5--5--5--|


--------------------------|--------------------------|
--------------------------|--------------------------|
--------------------------|--------------9--9--9--9--|
--2--2--2--2--2--2--2--2--|--9--9--9--9--9--9--9--9--|
--2--2--2--2--2--2--2--2--|--9--9--9--9--7--7--7--7--|
--0--0--0--0--0--0--0--0--|--7--7--7--7--------------|


--------------------------|--------------------------|
--------------------------|--------------------------|
--7--7--7--7--------------|--------------------------|
--7--7--7--7--9--9--9--9--|--7--7--7--7--7--7--7--7--|
--5--5--5--5--9--9--9--9--|--7--7--7--7--7--7--7--7--|
--------------7--7--7--7--|--5--5--5--5--5--5--5--5--|


--------------------------|-----------------------|-----------------------|
--------------------------|-----------------------|-----------------------|
--------------------------|-----------------------|--2----------4----2----|
--2--2--2--2--2--2--2--2--|--2--4-----------2--4--|--2--4-------4----2----|
--2--2--2--2--2--2--2--2--|--2--4-----------2--4--|--0--4-------2----0----|
--0--0--0--0--0--0--0--0--|--0--2-----------0--2--|-----2-----------------|


-----------------------|---------------------|-----------------------|
-----------------------|---------------------|-----------------------|
-----------------------|--2------------------|-----------------------|
--2--4-----------2--4--|--2--4---------------|--7--9-----------7--9--|
--2--4-----------2--4--|--0--4---------------|--7--9-----------7--7--|
--0--2-----------0--2--|-----2---------------|--5--7-----------5--7--|


----------------------|-----------------------|----------------------|
----------------------|-----------------------|----------------------|
--7-------------------|-----------------------|--7-------------------|
--7--9----------------|--7--9-----------7--9--|--7--9----------------|
--5--7----------------|--7--9-----------7--7--|--5--7----------------|
-----7----------------|--5--7-----------5--7--|-----7----------------|


-----------------------|----------------------|-----------------------|
-----------------------|----------------------|-----------------------|
-----------------------|--7-------------------|-----------------------|
--7--9-----------7--9--|--7--9----------------|--7--9-----------7--9--|
--7--9-----------7--7--|--5--7----------------|--7--9-----------7--7--|
--5--7-----------5--7--|-----7----------------|--5--7-----------5--7--|


----------------------|----------------------------|----------------------|
----------------------|----------------------------|----------------------|
--7-------------------|--7---------7---------------|--7-------------------|
--7--9----------------|--7--9-9-9--7--9-9-9--7--9--|--7--9----------------|
--5--7----------------|--5--9-9-9--5--9-9-9--7--7--|--5--7----------------|
-----7----------------|-----7-7-7-----7-7-7--5--7--|-----7----------------|


----------------------------|----------------------|
----------------------------|----------------------|
--7---------7---------------|--7-------------------|
--7--9-9-9--7--9-9-9--7--9--|--7--9----------------|
--5--9-9-9--5--9-9-9--7--7--|--5--7----------------|
-----7-7-7-----7-7-7--5--7--|-----7----------------|


----------------------------|----------------------|
----------------------------|----------------------|
--7---------7---------------|--7-------------------|
--7--9-9-9--7--9-9-9--7--9--|--7--9----------------|
--5--9-9-9--5--9-9-9--7--7--|--5--7----------------|
-----7-7-7-----7-7-7--5--7--|-----7----------------|


----------------------------|-----------------------|--------------------------|
----------------------------|-----------------------|--------------------------|
--7---------7---------------|--7--------------------|--------------9--9--9--9--|
--7--9-9-9--7--9-9-9--7--9--|--7--9-------2----4----|--9--9--9--9--9--9--9--9--|
--5--9-9-9--5--9-9-9--7--7--|--5--7-------2----4----|--9--9--9--9--7--7--7--7--|
-----7-7-7-----7-7-7--5--7--|-----7-------0----2----|--7--7--7--7--------------|


--------------------------|--------------------------|
--------------------------|--------------------------|
--7--7--7--7--------------|--------------------------|
--7--7--7--7--9--9--9--9--|--7--7--7--7--7--7--7--7--|
--5--5--5--5--9--9--9--9--|--7--7--7--7--7--7--7--7--|
--------------7--7--7--7--|--5--5--5--5--5--5--5--5--|


--------------------------|--------------------------|
--------------------------|--------------------------|
--------------------------|--------------9--9--9--9--|
--2--2--2--2--2--2--2--2--|--9--9--9--9--9--9--9--9--|
--2--2--2--2--2--2--2--2--|--9--9--9--9--7--7--7--7--|
--0--0--0--0--0--0--0--0--|--7--7--7--7--------------|


--------------------------|--------------------------|
--------------------------|--------------------------|
--7--7--7--7--------------|--------------------------|
--7--7--7--7--9--9--9--9--|--7--7--7--7--7--7--7--7--|
--5--5--5--5--9--9--9--9--|--7--7--7--7--7--7--7--7--|
--------------7--7--7--7--|--5--5--5--5--5--5--5--5--|


--------------------------|----------------------------------|
--------------------------|--7-7-7-7-7-7-7-7-7-7-7-7-7-7-7-7-|
--------------------------|--7-7-7-7-7-7-7-7-7-7-7-7-7-7-7-7-|
--2--2--2--2--2--2--2--2--|----------------------------------|
--2--2--2--2--2--2--2--2--|----------------------------------|
--0--0--0--0--0--0--0--0--|----------------------------------|


----------------------------|------------------------------------|
--7-7-7-7-7-7-7-7-----------|------------------------------------|
--7-7-7-7-7-7-7-7-----------|--9-9-9-9-9-9-9b--7-----------------|
------------------9----9----|----------------------7h-9p-7h-9p-7-|
----------------------------|------------------------------------|
----------------------------|------------------------------------|


----------------------|-------------------------|------------------------|
----------------------|-------------------------|------------------------|
--7-------------------|--7----------------------|--------------4----2----|
-------9----7---------|--7---------------9br----|--7-----------4----2----|
-----------------9----|-------9---7-9-----------|-----9-----9--2----0----|
----------------------|-------------------------|------------------------|


PM PM PM PM PM PM PM PM PM PM PM PM
-------------------------------------------|
-------------------------------------------|
-------------------------------------------|
--------------------------------7--9--7----|
--------7--9--------7--9--7--9-------------|
--7--9--------7--9-------------------------|


|--3--| |--3--| |--3--| |--3--| |--3--| |--3--| |--3--| |--3--|
--10p-9p-8---------10p-9p-8---------10p-9p-8---------10p-9p-8---------|
-----------9p-8p-7----------9p-8p-7----------9p-8p-7----------9p-8p-7-|


-----------------------|----------------------|-----------------------|
-----------------------|----------------------|-----------------------|
-----------------------|--7-------------------|-----------------------|
--7--9-----------7--9--|--7--9----------------|--7--9-----------7--9--|
--7--9-----------7--7--|--5--7----------------|--7--9-----------7--7--|
--5--7-----------5--7--|-----7----------------|--5--7-----------5--7--|


----------------------|--------------------------|--------------------------|
----------------------|--------------------------|--------------------------|
--7-------------------|--------------9--9--9--9--|--7--7--7--7--------------|
--7--9----------------|--9--9--9--9--9--9--9--9--|--7--7--7--7--9--9--9--9--|
--5--7----------------|--9--9--9--9--7--7--7--7--|--5--5--5--5--9--9--9--9--|
-----7----------------|--7--7--7--7--------------|--------------7--7--7--7--|


--------------------------|--------------------------|
--------------------------|--------------------------|
--------------------------|--------------------------|
--7--7--7--7--7--7--7--7--|--2--2--2--2--2--2--2--2--|
--7--7--7--7--7--7--7--7--|--2--2--2--2--2--2--2--2--|
--5--5--5--5--5--5--5--5--|--0--0--0--0--0--0--0--0--|


--------------------------|--------------------------|
--------------------------|--------------------------|
--------------9--9--9--9--|--7--7--7--7--------------|
--9--9--9--9--9--9--9--9--|--7--7--7--7--9--9--9--9--|
--9--9--9--9--7--7--7--7--|--5--5--5--5--9--9--9--9--|
--7--7--7--7--------------|--------------7--7--7--7--|


--------------------------|--------------------------|
--------------------------|--------------------------|
--------------------------|--------------------------|
--7--7--7--7--7--7--7--7--|--2--2--2--2--2--2--2--2--|
--7--7--7--7--7--7--7--7--|--2--2--2--2--2--2--2--2--|
--5--5--5--5--5--5--5--5--|--0--0--0--0--0--0--0--0--|


--------------------------|--------------------------|
--------------------------|--------------------------|
--------------9--9--9--9--|--7--7--7--7--------------|
--9--9--9--9--9--9--9--9--|--7--7--7--7--9--9--9--9--|
--9--9--9--9--7--7--7--7--|--5--5--5--5--9--9--9--9--|
--7--7--7--7--------------|--------------7--7--7--7--|


--------------------------|--------------------------|
--------------------------|--------------------------|
--------------------------|--------------------------|
--7--7--7--7--7--7--7--7--|--2--2--2--2--2--2--2--2--|
--7--7--7--7--7--7--7--7--|--2--2--2--2--2--2--2--2--|
--5--5--5--5--5--5--5--5--|--0--0--0--0--0--0--0--0--|


--------------------------|--------------------------|
--------------------------|--------------------------|
--------------9--9--9--9--|--7--7--7--7--------------|
--9--9--9--9--9--9--9--9--|--7--7--7--7--9--9--9--9--|
--9--9--9--9--7--7--7--7--|--5--5--5--5--9--9--9--9--|
--7--7--7--7--------------|--------------7--7--7--7--|


--------------------------|--------------------------|-----------------------|
--------------------------|--------------------------|-----------------------|
--------------------------|--------------------------|-----------------------|
--7--7--7--7--7--7--7--7--|--2--2--2--2--2--2--2--2--|--7--9-----------7--9--|
--7--7--7--7--7--7--7--7--|--2--2--2--2--2--2--2--2--|--7--9-----------7--7--|
--5--5--5--5--5--5--5--5--|--0--0--0--0--0--0--0--0--|--5--7-----------5--7--|


----------------------||
----------------------||
--7-------------------||
--7--9----------------||
--5--7----------------||
-----7----------------||





Comments


Popular Danko Jones tabs & chords
Bounce 2 Bass Tabs
I Want You Bass Tabs
Code Of The Road Tabs
First Date Tabs
Forget My Name 1 Tabs
I Wanna Break Up With You Tabs
I Want You 1 Tabs
Sound Of Love Tabs
Sticky Situation 2 Tabs
Word Is Bond Tabs


Song lyrics



↑ Back to top | Tablatures and chords are parodies/interpretations of the original songs. You may use it for private study, scholarship, research or language learning purposes only
© 2014 AZChords.com Contact us | Privacy policy | DMCA | Add/correct tabs | Request tabs | Top 50 tabs