» » »

The Sore Looser Tabs (ver.1)

Artists:  A B C D E F G H I J K L M N O P Q R S T U V W X Y Z # 

The Sore Looser Tabs (ver.1)

Danko Jones
Rating:
0/5 (0 votes)

Tabs too difficult? Try these video lessons and learn fast.
                "Danko Jones" - "The Sore Looser" - "from Below the Belt"

enjoy
Intro and First Part of the Verse:

E|----------------------|
B|----------------------|
G|----------------------|   Played 4 times in the beginning
D|-7--9----7--9--12--9--|
A|-7--9----7--9--12--9--|
E|-5--7----5--7--10--7--|

Second Part of the Verse:

E|----------------------------------|
B|----------------------------------|
G|----------------------------------| Played 4 times
D|-12--9-9-9----12--9-9-9--7-9-12-9-|
A|-12--9-9-9----12--9-9-9--7-9-12-9-|
E|-10--7-7-7----10--7-7-7--5-7-10-7-|

The next part is right befor the Chorus: 

E|------|
B|------|  just listen to the song
G|------|  it's not really part of 
D|-2--5-|  the chorus, sort of introduces it
A|-2--5-|
E|-2--3-|

Anyways the Chorus:

E|----------------------------------|
B|----------------------------------|
G|------9----7----------------------|
D|-9----9(4x)7(4x)9----7----2-------|
A|-9(4x)7----5----9(4x)7(4x)2(4x)---|
E|-7--------------7----5----0-------|

Thats all you need for this song exept for the solo....

The Solo: 

at 1:53
E|-----------------------------------------|
B|-7777777777777---------9-9-9-9-9b10--7~--|
G|-7777777777777---------9-9-9-9-9b10--7~--|
D|----------------9~~~9~-------------------|
A|-----------------------------------------|
E|-----------------------------------------|

at 1:59
E|-----------------------------------------------|
B|----------7~-----------7-----------------------|
G|----------7~-----------7--------9b10-----------|
D|--9p7-9p7----9--7---------------9b10--7--------|
A|-------------------9------9-7h9---------9~9~---|
E|-----------------------------------------------|

at 2:05
E|--------------------------------------|
B|--------------------------------------|
G|------------------------------7-9-----|
D|-9--7-----------------7-9-7-9-----9~--|
A|-9--7--------7-9--7-9-----------------|
E|-7--5---7-10--------------------------|
          PM.......................

at 2:08
E|---------------------------------------------------------|
B|-10p9p7--------10p9p7--------10p9p7------10p9p7----------|
G|--------11p9p7--------11p9p7-------11p9p7------11p9p7----|
D|---------------------------------------------------------|
A|---------------------------------------------------------|
E|---------------------------------------------------------|

Thats it, great song eh?
For the people how like to jam along with the song
it's written in B so use this scale:
E|-7--10-|
B|-7--10-|
G|-7--9--|
D|-7--9--|
A|-7--9--|
E|-7--10-|
Ok rate the sh*t out of this one please
            
Tabs too difficult? Try these video lessons and learn fast.


comments powered by Disqus
↑ Back to top | Tablatures and chords are parodies/interpretations of the original songs. You may use it for private study, scholarship, research or language learning purposes only