» » »

Danko Jones, The Rules Bass tabs (ver.1)

Artists:  A B C D E F G H I J K L M N O P Q R S T U V W X Y Z # 

The Rules Bass tabs (ver.1)

Danko Jones Tabs
Rating:
0/5 (0 votes)
The Rules lessons Tabs too difficult? Try these video lessons and learn fast
                intro/chorus

G|--------------------------------------------------------------
D|--------------------------------------------------------------
A|-7---------7---7----------9---7-----------9-9---7-------------
E|---9--9-9-9------9--9-9-9-------9--9-9-9----------9--9-9-9-7--


verse/end

G|------------------------
D|------------------------
A|------------------------  
E|-77779------------------  

chorus

G|---------------------------------------------------------------------
D|---------------------------------------------------------------------
A|--------7----------7---7----------9---7----------9-9---7-------------
E|--77799---9--9-9-9-------9--9-9-9-------9--9-9-9---------9--9-9-9-7--

intro
verse
chorus
verse
chorus
end
            

comments powered by Disqus
↑ Back to top | Danko Jones Bass for The Rules. Lyrics for acoustic guitar and electric guitar. Tablatures and chords are parodies/interpretations of the original songs. You may use it for private study, scholarship, research or language learning purposes only