» » »

Danko Jones, Mango Kid Tabs (ver.1)

Artists:  A B C D E F G H I J K L M N O P Q R S T U V W X Y Z # 

Mango Kid Tabs (ver.1)

Danko Jones Tabs
 Rating:
4/5 (4 votes)
Mango Kid lessons Tabs too difficult? Try these video lessons and learn fast
1
                Danko Jones



Standard Tuning
EASY AS A DIGESTIVE TO PLAY

b= bend
h= hammer on
p= pull off
H= harmonic
PM= Palm mute


--Intro--
e-------------------------------------------
B--------------3----------------------------
G-3b--3b-1--3b--3-1-3---3b--3b-1-3b--1----1-
D-------------------------------------1-3---
A-------------------------------------------
E-------------------------------------------

--Main Riff--                                        x2
e--------------------------------------------------------
B--------------------------------------------------------
G-------------------------3----------------3-3b-b-b-3-1-- <--Hold the 3 in the bend on each "b"
D-3-5--3-5--3-5--3-5--3-5-3--3-5--3-5--3-5---------------
A-3-5--3-5--3-5--3-5--3-5-1--3-5--3-5--3-5---------------
E-1-3--1-3--1-3--1-3--1-3----1-3--1-3--1-3---------------

--Verse--
e----------------------------
B----------------------------
G-------------------------3--
D-3-5--3-5--3-5--3-5--3-5-3-(5) <----
A-3-5--3-5--3-5--3-5--3-5-1-(5) <---- Let Ring
E-1-3--1-3--1-3--1-3--1-3---(3) <----

--Chorus--
e---------------------------------------
B---------------------------------------
G----3--5--777777777-7-7-7-88888888-10--
D-5--3--5--777777777-7-7-7-88888888-10--
A-5--1--3--555555555-5-5-5-66666666-8---
E-3-------------------------------------

--Solo type thing--
e---------------------------------------------------------------------------
B---------------------------------------------------------------------------
G-----------3-3----------------------3-3---------------------3-3-3-3-3-3-3--
D-355-355-35----355-35-7H--355-355-35---355-35-7H--355-355-35---------------
A----------------------7H----------------------7H---------------------------
E----------------------7H----------------------7H---------------------------

--bit after that--
|e------------------------------------------------|x5
|B------------------------------------------------|
|G---------------3-3---------------------3b-3b-3b-|
|D-3h55-3h55-3h55----3h55-x3h55-3h55-3h5----------|
|A------------------------------------------------|
|E------------------------------------------------|
 PM-------------    -------------------      

--last verse--
e------------------
B------------------
G---3---3---3------
D-5-3-3-3-3-3-(5)-- <---- 
A-5-1-3-1-3-1-(5)-- <---- After the drum solo, miss it out
E-3---1---1---(3)-- <----

--Outro--
e-----------
B-----------
G-----------
D-55-55-55--
A-55-55-55--
E-33-33-33--

This is 100% correct, but if you want to complain (there's always one), e-mail me.

Thanks to Samwise.

## FOFF ##

\m/\m/ Rock on
            
Submit corrections

comments powered by Disqus
↑ Back to top | Danko Jones Tabs for Mango Kid. Lyrics for acoustic guitar and electric guitar. 1 Tablatures and chords are parodies/interpretations of the original songs. You may use it for private study, scholarship, research or language learning purposes only