» » »

Take Me Out On A Stretcher Tabs (ver.1)

Artists:  A B C D E F G H I J K L M N O P Q R S T U V W X Y Z # 

Take Me Out On A Stretcher Tabs (ver.1)

Danko Jones
Rating:
0/5 (0 votes)

Hard to play? Try these video lessons and learn fast.
                Intro:
e||--------------------------------------------------------|
b||--------------------------------------------------------|
g||--------------------------------------------------------|   
d||--------------------------------------------------------|
a||--8-55-555555---8-55-5555555----------------------------| till 00:30
E||--------------8-----------------------------------------|
     
Verse:
e||--------------------------------------------------------|
b||--------------------------------------------------------|
g||--------------------------------------------------------|   
d||--12-(x12)-10-(x12)-----10-5--7-------------------------|
a||--10-------8------------8--3--5-------------------------| Play once after
E||--------------------------------------------------------|intro and   
                           |______|                         continue with 
                             VERSE                          intro again
Bridge:
e||--------------------------------------------------------|
b||--------------------------------------------------------|
g||--------------------------------------------------------|   
d||--7--7--7-----------------------------------------------| 1:10 - 1:15
a||--5--5--5-----------------------------------------------|
E||--------------------------------------------------------|

Solo:
e||----------------------------------------------------------------|
b||----------------------------------------------------------------|
g||----5-7-0-------------------5-7-0-10s3-----------5-7-0----------|   
d||--0-------7s3--(8x)-------0------------(4x)----0-------7s3-(x4)-|
a||----------------------------------------------------------------|
E||----------------------------------------------------------------|

After this play verse till the end.


I know this is not a very good tab but it's my first tab..
If u listen to the song u will figure out the structure.
I think this tab is pretty accurate :)
Grtz
            
Hard to play? Try these video lessons and learn fast. | Correct




comments powered by Disqus
↑ Back to top | Tablatures and chords are parodies/interpretations of the original songs. You may use it for private study, scholarship, research or language learning purposes only