» » »

Strut Tabs (ver.1)

Artists:  A B C D E F G H I J K L M N O P Q R S T U V W X Y Z # 

Strut Tabs (ver.1)

Danko Jones
Rating:
0/5 (0 votes)

Hard to play? Try these video lessons and learn fast.
                intro
e|----------------------------------|
B|----------------------------------|
G|----------------------------------|
D|--6-6-6-6----6-6-6-6----9-9-9-9---| x2
A|--6-6-4-6----6-6-4-6----9-9-7-9---|
E|--4-4-4-4----4-4-4-4----7-7-7-7---|

 verse
e|-----------------          ------------------|
B|-----------------          ------------------|
G|-----------------          ------------------|
D|--6~----9-9-7/6--          -7-7-7-7-9-9-9-9--| Then play the whole thing twice
A|--6~----9-9-7/6-- x4 then: -7-7-7-7-9-9-9-9--|
E|--4~----7-7-5/4--          -5-5-5-5-7-7-7-7--|

 chorus                 in the second chorus end with this:
e|---------------------------------|   |-----------------------|
B|---------------------------------|   |-----------------------|
G|---------------------------------|   |-----------------------|
D|--6-6-6-6----6-6-6-6----9-9-9-9--|x2 |--9--9--9--9--9--9--9--|
A|--6-6-4-6----6-6-4-6----9-9-7-9--|   |--9--9--9--9--9--9--9--|
E|--4-4-4-4----4-4-4-4----7-7-7-7--|   |--7--7--7--7--7--7--7--|

Then verse again.
Then chorus but twice

Then:

e|---------------------------------------|
B|---------------------------------------|
G|---------------------------------------|
D|--6-9-9-9-------6-9-9-11-11-9-9-6-6-6--| x4
A|--6-9-9-9-------6-9-9-11-11-9-9-6-6-6--|
E|--4-7-7-7-------4-7-7-9--9--7-7-4-4-4--|

Then play the chorus 'til the end.

I'm not so sure this tab is right so help me if you can!
            
Hard to play? Try these video lessons and learn fast. | Correct




comments powered by Disqus
↑ Back to top | Tablatures and chords are parodies/interpretations of the original songs. You may use it for private study, scholarship, research or language learning purposes only